ISO-10303-21;
HEADER;
FILE_DESCRIPTION (( 'STEP AP203' ),
    '1' );
FILE_NAME ('321688.step',
    '2021-12-02T12:56:31',
    ( '' ),
    ( '' ),
    'SwSTEP 2.0',
    'SolidWorks 2019',
    '' );
FILE_SCHEMA (( 'CONFIG_CONTROL_DESIGN' ));
ENDSEC;

DATA;
#1 = DIRECTION ( 'NONE',  ( -4.275831445896958607E-31, -1.000000000000000000, -1.224646799147353207E-16 ) ) ;
#2 = DIRECTION ( 'NONE',  ( 0.0000000000000000000, 1.000000000000000000, 0.0000000000000000000 ) ) ;
#3 = DIRECTION ( 'NONE',  ( 4.275831445896958607E-31, 1.000000000000000000, 1.224646799147352961E-16 ) ) ;
#4 = DIRECTION ( 'NONE',  ( 0.0000000000000000000, 1.000000000000000000, 0.0000000000000000000 ) ) ;
#5 = EDGE_LOOP ( 'NONE', ( #215 ) ) ;
#6 = APPROVAL_STATUS ( 'not_yet_approved' ) ;
#7 = LOCAL_TIME ( 13, 56, 31.00000000000000000, #213 ) ;
#8 = AXIS2_PLACEMENT_3D ( 'NONE', #171, #208, #111 ) ;
#9 = CC_DESIGN_PERSON_AND_ORGANIZATION_ASSIGNMENT ( #195, #24, ( #233 ) ) ;
#10 = ORIENTED_EDGE ( 'NONE', *, *, #54, .F. ) ;
#11 = MANIFOLD_SOLID_BREP ( 'Corps-Déplacer/Copier1[1]', #109 ) ;
#12 = CARTESIAN_POINT ( 'NONE',  ( 4.189777606611760026E-14, -1.469576158976823947E-15, 12.00000000000000000 ) ) ;
#13 = LOCAL_TIME ( 13, 56, 31.00000000000000000, #163 ) ;
#14 = CARTESIAN_POINT ( 'NONE',  ( 4.189777606611760026E-14, 2.310000000000013820, 12.00000000000000000 ) ) ;
#15 = CYLINDRICAL_SURFACE ( 'NONE', #38, 1.999999999999996669 ) ;
#16 = FACE_BOUND ( 'NONE', #115, .T. ) ;
#17 = ADVANCED_FACE ( 'NONE', ( #22 ), #172, .F. ) ;
#18 = CIRCLE ( 'NONE', #191, 1.600000000000000977 ) ;
#19 =( GEOMETRIC_REPRESENTATION_CONTEXT ( 3 ) GLOBAL_UNCERTAINTY_ASSIGNED_CONTEXT ( ( #46 ) ) GLOBAL_UNIT_ASSIGNED_CONTEXT ( ( #40, #44, #193 ) ) REPRESENTATION_CONTEXT ( 'NONE', 'WORKASPACE' ) );
#20 = FACE_BOUND ( 'NONE', #194, .T. ) ;
#21 = MANIFOLD_SOLID_BREP ( 'Corps-Déplacer/Copier1[2]', #68 ) ;
#22 = FACE_OUTER_BOUND ( 'NONE', #30, .T. ) ;
#23 = ORIENTED_EDGE ( 'NONE', *, *, #203, .T. ) ;
#24 = PERSON_AND_ORGANIZATION_ROLE ( 'creator' ) ;
#25 = CC_DESIGN_PERSON_AND_ORGANIZATION_ASSIGNMENT ( #174, #173, ( #221 ) ) ;
#26 = PERSON_AND_ORGANIZATION ( #146, #133 ) ;
#27 = APPROVAL_PERSON_ORGANIZATION ( #26, #131, #138 ) ;
#28 = SECURITY_CLASSIFICATION_LEVEL ( 'unclassified' ) ;
#29 = ADVANCED_FACE ( 'NONE', ( #84 ), #33, .T. ) ;
#30 = EDGE_LOOP ( 'NONE', ( #10 ) ) ;
#31 = CC_DESIGN_APPROVAL ( #180, ( #233 ) ) ;
#32 = EDGE_CURVE ( 'NONE', #204, #204, #240, .T. ) ;
#33 = PLANE ( 'NONE',  #98 ) ;
#34 = DATE_AND_TIME ( #217, #13 ) ;
#35 = ADVANCED_FACE ( 'NONE', ( #158, #207 ), #51, .T. ) ;
#36 = DIRECTION ( 'NONE',  ( -3.491481338843133355E-15, 1.224646799147353207E-16, -1.000000000000000000 ) ) ;
#37 = DIRECTION ( 'NONE',  ( -3.491481338843133355E-15, 1.224646799147353207E-16, -1.000000000000000000 ) ) ;
#38 = AXIS2_PLACEMENT_3D ( 'NONE', #91, #57, #71 ) ;
#39 = ORIENTED_EDGE ( 'NONE', *, *, #107, .T. ) ;
#40 =( LENGTH_UNIT ( ) NAMED_UNIT ( * ) SI_UNIT ( .MILLI., .METRE. ) );
#41 = PERSON_AND_ORGANIZATION ( #146, #133 ) ;
#42 = APPROVAL_DATE_TIME ( #212, #131 ) ;
#43 = CC_DESIGN_APPROVAL ( #131, ( #88 ) ) ;
#44 =( NAMED_UNIT ( * ) PLANE_ANGLE_UNIT ( ) SI_UNIT ( $, .RADIAN. ) );
#45 = CC_DESIGN_PERSON_AND_ORGANIZATION_ASSIGNMENT ( #140, #197, ( #88 ) ) ;
#46 = UNCERTAINTY_MEASURE_WITH_UNIT (LENGTH_MEASURE( 1.000000000000000082E-05 ), #40, 'distance_accuracy_value', 'NONE');
#47 = DATE_TIME_ROLE ( 'classification_date' ) ;
#48 = CC_DESIGN_APPROVAL ( #188, ( #121 ) ) ;
#49 = DIRECTION ( 'NONE',  ( -3.491481338843133355E-15, 1.224646799147353207E-16, -1.000000000000000000 ) ) ;
#50 = AXIS2_PLACEMENT_3D ( 'NONE', #12, #149, #75 ) ;
#51 = CYLINDRICAL_SURFACE ( 'NONE', #157, 2.310000000000015152 ) ;
#52 = DIRECTION ( 'NONE',  ( -4.275831445896958607E-31, -1.000000000000000000, -1.224646799147352961E-16 ) ) ;
#53 = DIRECTION ( 'NONE',  ( -3.491481338843133355E-15, 1.224646799147353207E-16, -1.000000000000000000 ) ) ;
#54 = EDGE_CURVE ( 'NONE', #108, #108, #18, .T. ) ;
#55 = DIRECTION ( 'NONE',  ( -3.491481338843133355E-15, 1.224646799147353207E-16, -1.000000000000000000 ) ) ;
#56 = APPLICATION_CONTEXT ( 'configuration controlled 3d designs of mechanical parts and assemblies' ) ;
#57 = DIRECTION ( 'NONE',  ( -3.491481338843133355E-15, 1.224646799147353207E-16, -1.000000000000000000 ) ) ;
#58 = ORIENTED_EDGE ( 'NONE', *, *, #54, .T. ) ;
#59 = DIRECTION ( 'NONE',  ( 3.491481338843133355E-15, -1.224646799147353207E-16, 1.000000000000000000 ) ) ;
#60 = EDGE_LOOP ( 'NONE', ( #237 ) ) ;
#61 = CONICAL_SURFACE ( 'NONE', #70, 1.910000000000013909, 0.7853981633974497223 ) ;
#62 = VERTEX_POINT ( 'NONE', #82 ) ;
#63 = CALENDAR_DATE ( 2021, 2, 12 ) ;
#64 = COORDINATED_UNIVERSAL_TIME_OFFSET ( 1, 0, .AHEAD. ) ;
#65 = DATE_TIME_ROLE ( 'creation_date' ) ;
#66 = ORIENTED_EDGE ( 'NONE', *, *, #107, .F. ) ;
#67 = EDGE_CURVE ( 'NONE', #185, #185, #74, .T. ) ;
#68 = CLOSED_SHELL ( 'NONE', ( #35, #176, #29, #86 ) ) ;
#69 = DIRECTION ( 'NONE',  ( 4.275831445896958607E-31, 1.000000000000000000, 1.224646799147353207E-16 ) ) ;
#70 = AXIS2_PLACEMENT_3D ( 'NONE', #150, #73, #52 ) ;
#71 = DIRECTION ( 'NONE',  ( 4.275831445896958607E-31, 1.000000000000000000, 1.224646799147353207E-16 ) ) ;
#72 = PLANE ( 'NONE',  #200 ) ;
#73 = DIRECTION ( 'NONE',  ( 3.491481338843133355E-15, -1.224646799147353207E-16, 1.000000000000000000 ) ) ;
#74 = CIRCLE ( 'NONE', #166, 2.310000000000015152 ) ;
#75 = DIRECTION ( 'NONE',  ( 0.0000000000000000000, 1.000000000000000000, 0.0000000000000000000 ) ) ;
#76 = FACE_OUTER_BOUND ( 'NONE', #119, .T. ) ;
#77 = APPROVAL_DATE_TIME ( #234, #180 ) ;
#78 = ORIENTED_EDGE ( 'NONE', *, *, #32, .T. ) ;
#79 = CALENDAR_DATE ( 2021, 2, 12 ) ;
#80 = APPLICATION_PROTOCOL_DEFINITION ( 'international standard', 'config_control_design', 1994, #56 ) ;
#81 = APPROVAL_ROLE ( '' ) ;
#82 = CARTESIAN_POINT ( 'NONE',  ( 2.779219145719134403E-13, 1.999999999999991340, 79.60000000000000853 ) ) ;
#83 = EDGE_LOOP ( 'NONE', ( #104 ) ) ;
#84 = FACE_OUTER_BOUND ( 'NONE', #199, .T. ) ;
#85 = APPROVAL_STATUS ( 'not_yet_approved' ) ;
#86 = ADVANCED_FACE ( 'NONE', ( #130, #20 ), #61, .T. ) ;
#87 = FACE_OUTER_BOUND ( 'NONE', #83, .T. ) ;
#88 = PRODUCT_DEFINITION_FORMATION_WITH_SPECIFIED_SOURCE ( 'ANY', '', #221, .NOT_KNOWN. ) ;
#89 = FACE_OUTER_BOUND ( 'NONE', #5, .T. ) ;
#90 = CC_DESIGN_PERSON_AND_ORGANIZATION_ASSIGNMENT ( #196, #139, ( #121 ) ) ;
#91 = CARTESIAN_POINT ( 'NONE',  ( 0.0000000000000000000, 0.0000000000000000000, 0.0000000000000000000 ) ) ;
#92 = FACE_OUTER_BOUND ( 'NONE', #94, .T. ) ;
#93 = CARTESIAN_POINT ( 'NONE',  ( 2.779219145719134403E-13, -9.748188521212932624E-15, 79.60000000000000853 ) ) ;
#94 = EDGE_LOOP ( 'NONE', ( #192 ) ) ;
#95 = VERTEX_POINT ( 'NONE', #101 ) ;
#96 = EDGE_LOOP ( 'NONE', ( #58 ) ) ;
#97 = DATE_AND_TIME ( #156, #110 ) ;
#98 = AXIS2_PLACEMENT_3D ( 'NONE', #147, #162, #69 ) ;
#99 = CIRCLE ( 'NONE', #183, 2.000000000000000888 ) ;
#100 = PRODUCT_RELATED_PRODUCT_CATEGORY ( 'detail', '', ( #221 ) ) ;
#101 = CARTESIAN_POINT ( 'NONE',  ( 4.377247721860976023E-14, 1.999999999999990452, 12.53693575034638918 ) ) ;
#102 = CALENDAR_DATE ( 2021, 2, 12 ) ;
#103 = ORIENTED_EDGE ( 'NONE', *, *, #136, .F. ) ;
#104 = ORIENTED_EDGE ( 'NONE', *, *, #203, .F. ) ;
#105 = CARTESIAN_POINT ( 'NONE',  ( 1.396592535537253145E-15, -4.898587196589411843E-17, 0.3999999999999999112 ) ) ;
#106 = SHAPE_DEFINITION_REPRESENTATION ( #225, #128 ) ;
#107 = EDGE_CURVE ( 'NONE', #167, #167, #153, .T. ) ;
#108 = VERTEX_POINT ( 'NONE', #205 ) ;
#109 = CLOSED_SHELL ( 'NONE', ( #223, #210, #219, #165, #17 ) ) ;
#110 = LOCAL_TIME ( 13, 56, 31.00000000000000000, #211 ) ;
#111 = DIRECTION ( 'NONE',  ( 0.0000000000000000000, 1.000000000000000000, 0.0000000000000000000 ) ) ;
#112 = DIRECTION ( 'NONE',  ( -3.491481338843133355E-15, 1.224646799147353207E-16, -1.000000000000000000 ) ) ;
#113 = CARTESIAN_POINT ( 'NONE',  ( 4.189777606611760026E-14, -1.469576158976823947E-15, 12.00000000000000000 ) ) ;
#114 = AXIS2_PLACEMENT_3D ( 'NONE', #148, #112, #4 ) ;
#115 = EDGE_LOOP ( 'NONE', ( #23 ) ) ;
#116 = COORDINATED_UNIVERSAL_TIME_OFFSET ( 1, 0, .AHEAD. ) ;
#117 = PERSON_AND_ORGANIZATION_ROLE ( 'creator' ) ;
#118 = APPROVAL_STATUS ( 'not_yet_approved' ) ;
#119 = EDGE_LOOP ( 'NONE', ( #178 ) ) ;
#120 = CC_DESIGN_DATE_AND_TIME_ASSIGNMENT ( #97, #65, ( #233 ) ) ;
#121 = SECURITY_CLASSIFICATION ( '', '', #28 ) ;
#122 = APPROVAL_DATE_TIME ( #34, #188 ) ;
#123 = CONICAL_SURFACE ( 'NONE', #8, 1.600000000000000977, 0.7853981633974512766 ) ;
#124 = DIRECTION ( 'NONE',  ( -3.491481338843133355E-15, 1.224646799147353207E-16, -1.000000000000000000 ) ) ;
#125 = DIRECTION ( 'NONE',  ( -4.275831445896958607E-31, -1.000000000000000000, -1.224646799147353207E-16 ) ) ;
#126 = AXIS2_PLACEMENT_3D ( 'NONE', #105, #218, #201 ) ;
#127 = APPROVAL_PERSON_ORGANIZATION ( #198, #180, #81 ) ;
#128 = ADVANCED_BREP_SHAPE_REPRESENTATION ( '321688', ( #11, #21, #159 ), #19 ) ;
#129 = FACE_OUTER_BOUND ( 'NONE', #161, .T. ) ;
#130 = FACE_OUTER_BOUND ( 'NONE', #151, .T. ) ;
#131 = APPROVAL ( #6, 'UNSPECIFIED' ) ;
#132 = FACE_OUTER_BOUND ( 'NONE', #60, .T. ) ;
#133 = ORGANIZATION ( 'UNSPECIFIED', 'UNSPECIFIED', '' ) ;
#134 = EDGE_LOOP ( 'NONE', ( #228 ) ) ;
#135 = CARTESIAN_POINT ( 'NONE',  ( 4.189777606611760026E-14, 2.310000000000013820, 12.00000000000000000 ) ) ;
#136 = EDGE_CURVE ( 'NONE', #62, #62, #99, .T. ) ;
#137 = DESIGN_CONTEXT ( 'detailed design', #56, 'design' ) ;
#138 = APPROVAL_ROLE ( '' ) ;
#139 = PERSON_AND_ORGANIZATION_ROLE ( 'classification_officer' ) ;
#140 = PERSON_AND_ORGANIZATION ( #146, #133 ) ;
#141 = EDGE_CURVE ( 'NONE', #154, #154, #220, .T. ) ;
#142 = EDGE_LOOP ( 'NONE', ( #181 ) ) ;
#143 = APPROVAL_ROLE ( '' ) ;
#144 = APPROVAL_PERSON_ORGANIZATION ( #179, #188, #143 ) ;
#145 = CARTESIAN_POINT ( 'NONE',  ( 0.0000000000000000000, 0.0000000000000000000, 0.0000000000000000000 ) ) ;
#146 = PERSON ( 'UNSPECIFIED', 'UNSPECIFIED', 'UNSPECIFIED', ('UNSPECIFIED'), ('UNSPECIFIED'), ('UNSPECIFIED') ) ;
#147 = CARTESIAN_POINT ( 'NONE',  ( -4.083419030831625080E-31, 1.432270592442084197E-32, -1.169537693185730693E-16 ) ) ;
#148 = CARTESIAN_POINT ( 'NONE',  ( 4.377247721860976023E-14, -1.535331823777772745E-15, 12.53693575034638918 ) ) ;
#149 = DIRECTION ( 'NONE',  ( -3.491481338843133355E-15, 1.224646799147353207E-16, -1.000000000000000000 ) ) ;
#150 = CARTESIAN_POINT ( 'NONE',  ( -8.166838061663250161E-31, 2.864541184884168394E-32, -2.339075386371461387E-16 ) ) ;
#151 = EDGE_LOOP ( 'NONE', ( #78 ) ) ;
#152 = PLANE ( 'NONE',  #241 ) ;
#153 = CIRCLE ( 'NONE', #206, 1.910000000000013909 ) ;
#154 = VERTEX_POINT ( 'NONE', #135 ) ;
#155 = APPLICATION_PROTOCOL_DEFINITION ( 'international standard', 'config_control_design', 1994, #202 ) ;
#156 = CALENDAR_DATE ( 2021, 2, 12 ) ;
#157 = AXIS2_PLACEMENT_3D ( 'NONE', #145, #124, #168 ) ;
#158 = FACE_OUTER_BOUND ( 'NONE', #142, .T. ) ;
#159 = AXIS2_PLACEMENT_3D ( 'NONE', #235, #160, #232 ) ;
#160 = DIRECTION ( 'NONE',  ( 0.0000000000000000000, 0.0000000000000000000, 1.000000000000000000 ) ) ;
#161 = EDGE_LOOP ( 'NONE', ( #103 ) ) ;
#162 = DIRECTION ( 'NONE',  ( -3.491481338843133355E-15, 1.224646799147353207E-16, -1.000000000000000000 ) ) ;
#163 = COORDINATED_UNIVERSAL_TIME_OFFSET ( 1, 0, .AHEAD. ) ;
#164 = DIRECTION ( 'NONE',  ( 0.0000000000000000000, 1.000000000000000000, 0.0000000000000000000 ) ) ;
#165 = ADVANCED_FACE ( 'NONE', ( #129, #187 ), #123, .T. ) ;
#166 = AXIS2_PLACEMENT_3D ( 'NONE', #113, #37, #170 ) ;
#167 = VERTEX_POINT ( 'NONE', #230 ) ;
#168 = DIRECTION ( 'NONE',  ( 4.275831445896958607E-31, 1.000000000000000000, 1.224646799147353207E-16 ) ) ;
#169 = CC_DESIGN_PERSON_AND_ORGANIZATION_ASSIGNMENT ( #41, #117, ( #88 ) ) ;
#170 = DIRECTION ( 'NONE',  ( 0.0000000000000000000, 1.000000000000000000, 0.0000000000000000000 ) ) ;
#171 = CARTESIAN_POINT ( 'NONE',  ( 2.793185071074506684E-13, -9.797174393178826052E-15, 80.00000000000000000 ) ) ;
#172 = PLANE ( 'NONE',  #236 ) ;
#173 = PERSON_AND_ORGANIZATION_ROLE ( 'design_owner' ) ;
#174 = PERSON_AND_ORGANIZATION ( #146, #133 ) ;
#175 = CONICAL_SURFACE ( 'NONE', #177, 2.310000000000015152, 0.5235987755983005920 ) ;
#176 = ADVANCED_FACE ( 'NONE', ( #132 ), #72, .T. ) ;
#177 = AXIS2_PLACEMENT_3D ( 'NONE', #227, #53, #222 ) ;
#178 = ORIENTED_EDGE ( 'NONE', *, *, #141, .T. ) ;
#179 = PERSON_AND_ORGANIZATION ( #146, #133 ) ;
#180 = APPROVAL ( #118, 'UNSPECIFIED' ) ;
#181 = ORIENTED_EDGE ( 'NONE', *, *, #67, .T. ) ;
#182 = DIRECTION ( 'NONE',  ( 4.275831445896958607E-31, 1.000000000000000000, 1.224646799147353207E-16 ) ) ;
#183 = AXIS2_PLACEMENT_3D ( 'NONE', #93, #55, #2 ) ;
#184 = CARTESIAN_POINT ( 'NONE',  ( 4.189777606611760026E-14, 1.732222548974454897E-32, 12.00000000000000000 ) ) ;
#185 = VERTEX_POINT ( 'NONE', #14 ) ;
#186 = CC_DESIGN_SECURITY_CLASSIFICATION ( #121, ( #88 ) ) ;
#187 = FACE_BOUND ( 'NONE', #96, .T. ) ;
#188 = APPROVAL ( #85, 'UNSPECIFIED' ) ;
#189 = DIRECTION ( 'NONE',  ( 3.491481338843133355E-15, -1.224646799147353207E-16, 1.000000000000000000 ) ) ;
#190 = CARTESIAN_POINT ( 'NONE',  ( -8.166838061663250161E-31, 2.864541184884168394E-32, -2.339075386371461387E-16 ) ) ;
#191 = AXIS2_PLACEMENT_3D ( 'NONE', #224, #226, #164 ) ;
#192 = ORIENTED_EDGE ( 'NONE', *, *, #136, .T. ) ;
#193 =( NAMED_UNIT ( * ) SI_UNIT ( $, .STERADIAN. ) SOLID_ANGLE_UNIT ( ) );
#194 = EDGE_LOOP ( 'NONE', ( #66 ) ) ;
#195 = PERSON_AND_ORGANIZATION ( #146, #133 ) ;
#196 = PERSON_AND_ORGANIZATION ( #146, #133 ) ;
#197 = PERSON_AND_ORGANIZATION_ROLE ( 'design_supplier' ) ;
#198 = PERSON_AND_ORGANIZATION ( #146, #133 ) ;
#199 = EDGE_LOOP ( 'NONE', ( #39 ) ) ;
#200 = AXIS2_PLACEMENT_3D ( 'NONE', #184, #189, #1 ) ;
#201 = DIRECTION ( 'NONE',  ( 4.168679533305677780E-31, 1.000000000000000000, 1.173378974551403976E-16 ) ) ;
#202 = APPLICATION_CONTEXT ( 'configuration controlled 3d designs of mechanical parts and assemblies' ) ;
#203 = EDGE_CURVE ( 'NONE', #95, #95, #242, .T. ) ;
#204 = VERTEX_POINT ( 'NONE', #209 ) ;
#205 = CARTESIAN_POINT ( 'NONE',  ( 2.793185071074506684E-13, 1.599999999999991207, 80.00000000000000000 ) ) ;
#206 = AXIS2_PLACEMENT_3D ( 'NONE', #190, #36, #3 ) ;
#207 = FACE_OUTER_BOUND ( 'NONE', #134, .T. ) ;
#208 = DIRECTION ( 'NONE',  ( -3.491481338843133355E-15, 1.224646799147353207E-16, -1.000000000000000000 ) ) ;
#209 = CARTESIAN_POINT ( 'NONE',  ( 1.396592535537254131E-15, 2.310000000000015152, 0.4000000000000001887 ) ) ;
#210 = ADVANCED_FACE ( 'NONE', ( #16, #89 ), #175, .T. ) ;
#211 = COORDINATED_UNIVERSAL_TIME_OFFSET ( 1, 0, .AHEAD. ) ;
#212 = DATE_AND_TIME ( #79, #231 ) ;
#213 = COORDINATED_UNIVERSAL_TIME_OFFSET ( 1, 0, .AHEAD. ) ;
#214 = DATE_AND_TIME ( #102, #7 ) ;
#215 = ORIENTED_EDGE ( 'NONE', *, *, #141, .F. ) ;
#216 = LOCAL_TIME ( 13, 56, 31.00000000000000000, #116 ) ;
#217 = CALENDAR_DATE ( 2021, 2, 12 ) ;
#218 = DIRECTION ( 'NONE',  ( -3.491481338843133355E-15, 1.224646799147353207E-16, -1.000000000000000000 ) ) ;
#219 = ADVANCED_FACE ( 'NONE', ( #87, #92 ), #15, .T. ) ;
#220 = CIRCLE ( 'NONE', #50, 2.310000000000015152 ) ;
#221 = PRODUCT ( '321688', '321688', '', ( #238 ) ) ;
#222 = DIRECTION ( 'NONE',  ( 0.0000000000000000000, 1.000000000000000000, 0.0000000000000000000 ) ) ;
#223 = ADVANCED_FACE ( 'NONE', ( #76 ), #152, .F. ) ;
#224 = CARTESIAN_POINT ( 'NONE',  ( 2.793185071074506684E-13, -9.797174393178826052E-15, 80.00000000000000000 ) ) ;
#225 = PRODUCT_DEFINITION_SHAPE ( 'NONE', 'NONE',  #233 ) ;
#226 = DIRECTION ( 'NONE',  ( -3.491481338843133355E-15, 1.224646799147353207E-16, -1.000000000000000000 ) ) ;
#227 = CARTESIAN_POINT ( 'NONE',  ( 4.189777606611760026E-14, -1.469576158976823947E-15, 12.00000000000000000 ) ) ;
#228 = ORIENTED_EDGE ( 'NONE', *, *, #32, .F. ) ;
#229 = CARTESIAN_POINT ( 'NONE',  ( 4.189777606611760026E-14, 1.732222548974454897E-32, 12.00000000000000000 ) ) ;
#230 = CARTESIAN_POINT ( 'NONE',  ( 0.0000000000000000000, 1.910000000000013909, 0.0000000000000000000 ) ) ;
#231 = LOCAL_TIME ( 13, 56, 31.00000000000000000, #64 ) ;
#232 = DIRECTION ( 'NONE',  ( 1.000000000000000000, 0.0000000000000000000, 0.0000000000000000000 ) ) ;
#233 = PRODUCT_DEFINITION ( 'UNKNOWN', '', #88, #137 ) ;
#234 = DATE_AND_TIME ( #63, #216 ) ;
#235 = CARTESIAN_POINT ( 'NONE',  ( 0.0000000000000000000, 0.0000000000000000000, 0.0000000000000000000 ) ) ;
#236 = AXIS2_PLACEMENT_3D ( 'NONE', #239, #49, #182 ) ;
#237 = ORIENTED_EDGE ( 'NONE', *, *, #67, .F. ) ;
#238 = MECHANICAL_CONTEXT ( 'NONE', #202, 'mechanical' ) ;
#239 = CARTESIAN_POINT ( 'NONE',  ( 2.793185071074506684E-13, 1.199807826129472128E-32, 80.00000000000000000 ) ) ;
#240 = CIRCLE ( 'NONE', #126, 2.310000000000015152 ) ;
#241 = AXIS2_PLACEMENT_3D ( 'NONE', #229, #59, #125 ) ;
#242 = CIRCLE ( 'NONE', #114, 1.999999999999992228 ) ;
#243 = CC_DESIGN_DATE_AND_TIME_ASSIGNMENT ( #214, #47, ( #121 ) ) ;
ENDSEC;
END-ISO-10303-21;
