ISO-10303-21;
HEADER;
FILE_DESCRIPTION (( 'STEP AP203' ),
    '1' );
FILE_NAME ('321687.step',
    '2021-12-02T12:56:30',
    ( '' ),
    ( '' ),
    'SwSTEP 2.0',
    'SolidWorks 2019',
    '' );
FILE_SCHEMA (( 'CONFIG_CONTROL_DESIGN' ));
ENDSEC;

DATA;
#1 = CARTESIAN_POINT ( 'NONE',  ( 2.793185071074506684E-13, 1.199807826129472128E-32, 80.00000000000000000 ) ) ;
#2 = PRODUCT_RELATED_PRODUCT_CATEGORY ( 'detail', '', ( #103 ) ) ;
#3 = CARTESIAN_POINT ( 'NONE',  ( -8.145458904433765447E-31, 2.857042385970859598E-32, -2.332952152375724511E-16 ) ) ;
#4 = CC_DESIGN_PERSON_AND_ORGANIZATION_ASSIGNMENT ( #150, #210, ( #103 ) ) ;
#5 = ORIENTED_EDGE ( 'NONE', *, *, #153, .F. ) ;
#6 = CARTESIAN_POINT ( 'NONE',  ( 0.0000000000000000000, 1.905000000000013571, 0.0000000000000000000 ) ) ;
#7 = SECURITY_CLASSIFICATION ( '', '', #31 ) ;
#8 = DIRECTION ( 'NONE',  ( -4.275831445896958607E-31, -1.000000000000000000, -1.224646799147353207E-16 ) ) ;
#9 = UNCERTAINTY_MEASURE_WITH_UNIT (LENGTH_MEASURE( 1.000000000000000082E-05 ), #76, 'distance_accuracy_value', 'NONE');
#10 = MECHANICAL_CONTEXT ( 'NONE', #20, 'mechanical' ) ;
#11 = EDGE_CURVE ( 'NONE', #204, #204, #185, .T. ) ;
#12 = AXIS2_PLACEMENT_3D ( 'NONE', #192, #174, #140 ) ;
#13 = PRODUCT_DEFINITION_SHAPE ( 'NONE', 'NONE',  #196 ) ;
#14 = EDGE_LOOP ( 'NONE', ( #230 ) ) ;
#15 = FACE_OUTER_BOUND ( 'NONE', #111, .T. ) ;
#16 = DIRECTION ( 'NONE',  ( -4.275831445896958607E-31, -1.000000000000000000, -1.224646799147353207E-16 ) ) ;
#17 = DIRECTION ( 'NONE',  ( -3.491481338843133355E-15, 1.224646799147353207E-16, -1.000000000000000000 ) ) ;
#18 = PLANE ( 'NONE',  #176 ) ;
#19 = CC_DESIGN_PERSON_AND_ORGANIZATION_ASSIGNMENT ( #119, #28, ( #234 ) ) ;
#20 = APPLICATION_CONTEXT ( 'configuration controlled 3d designs of mechanical parts and assemblies' ) ;
#21 = CARTESIAN_POINT ( 'NONE',  ( -4.072729452216882723E-31, 1.428521192985429799E-32, -1.166476076187862255E-16 ) ) ;
#22 = ADVANCED_FACE ( 'NONE', ( #15, #240 ), #198, .T. ) ;
#23 = FACE_OUTER_BOUND ( 'NONE', #105, .T. ) ;
#24 = APPROVAL_STATUS ( 'not_yet_approved' ) ;
#25 = ORIENTED_EDGE ( 'NONE', *, *, #171, .F. ) ;
#26 = AXIS2_PLACEMENT_3D ( 'NONE', #114, #183, #8 ) ;
#27 = EDGE_LOOP ( 'NONE', ( #205 ) ) ;
#28 = PERSON_AND_ORGANIZATION_ROLE ( 'creator' ) ;
#29 = CALENDAR_DATE ( 2021, 2, 12 ) ;
#30 = AXIS2_PLACEMENT_3D ( 'NONE', #166, #206, #16 ) ;
#31 = SECURITY_CLASSIFICATION_LEVEL ( 'unclassified' ) ;
#32 = EDGE_CURVE ( 'NONE', #201, #201, #203, .T. ) ;
#33 = DESIGN_CONTEXT ( 'detailed design', #51, 'design' ) ;
#34 = ORIENTED_EDGE ( 'NONE', *, *, #11, .T. ) ;
#35 = APPROVAL_PERSON_ORGANIZATION ( #148, #47, #61 ) ;
#36 = CARTESIAN_POINT ( 'NONE',  ( 0.0000000000000000000, 0.0000000000000000000, 0.0000000000000000000 ) ) ;
#37 = FACE_OUTER_BOUND ( 'NONE', #145, .T. ) ;
#38 = ORIENTED_EDGE ( 'NONE', *, *, #229, .T. ) ;
#39 = DIRECTION ( 'NONE',  ( 4.275831445896958607E-31, 1.000000000000000000, 1.224646799147353207E-16 ) ) ;
#40 = DIRECTION ( 'NONE',  ( -3.491481338843133355E-15, 1.224646799147353207E-16, -1.000000000000000000 ) ) ;
#41 = VERTEX_POINT ( 'NONE', #223 ) ;
#42 = ORIENTED_EDGE ( 'NONE', *, *, #171, .T. ) ;
#43 = VERTEX_POINT ( 'NONE', #57 ) ;
#44 = PERSON_AND_ORGANIZATION ( #238, #102 ) ;
#45 = CALENDAR_DATE ( 2021, 2, 12 ) ;
#46 = APPLICATION_PROTOCOL_DEFINITION ( 'international standard', 'config_control_design', 1994, #51 ) ;
#47 = APPROVAL ( #24, 'UNSPECIFIED' ) ;
#48 = DIRECTION ( 'NONE',  ( 0.0000000000000000000, 1.000000000000000000, 0.0000000000000000000 ) ) ;
#49 = EDGE_CURVE ( 'NONE', #126, #126, #164, .T. ) ;
#50 = APPROVAL_DATE_TIME ( #186, #82 ) ;
#51 = APPLICATION_CONTEXT ( 'configuration controlled 3d designs of mechanical parts and assemblies' ) ;
#52 = EDGE_LOOP ( 'NONE', ( #38 ) ) ;
#53 = EDGE_LOOP ( 'NONE', ( #109 ) ) ;
#54 = ADVANCED_FACE ( 'NONE', ( #193, #68 ), #219, .T. ) ;
#55 = CIRCLE ( 'NONE', #239, 1.999999999999992228 ) ;
#56 = DIRECTION ( 'NONE',  ( -3.491481338843133355E-15, 1.224646799147353207E-16, -1.000000000000000000 ) ) ;
#57 = CARTESIAN_POINT ( 'NONE',  ( 2.793185071074506684E-13, 1.599999999999991207, 80.00000000000000000 ) ) ;
#58 = AXIS2_PLACEMENT_3D ( 'NONE', #73, #40, #181 ) ;
#59 = DIRECTION ( 'NONE',  ( -3.491481338843133355E-15, 1.224646799147353207E-16, -1.000000000000000000 ) ) ;
#60 = PLANE ( 'NONE',  #26 ) ;
#61 = APPROVAL_ROLE ( '' ) ;
#62 = DATE_TIME_ROLE ( 'classification_date' ) ;
#63 = CIRCLE ( 'NONE', #209, 1.600000000000000977 ) ;
#64 = ADVANCED_FACE ( 'NONE', ( #121, #194 ), #115, .T. ) ;
#65 = CALENDAR_DATE ( 2021, 2, 12 ) ;
#66 = CARTESIAN_POINT ( 'NONE',  ( 1.396592535537252750E-15, -4.898587196589410610E-17, 0.3999999999999998002 ) ) ;
#67 = LOCAL_TIME ( 13, 56, 30.00000000000000000, #134 ) ;
#68 = FACE_OUTER_BOUND ( 'NONE', #27, .T. ) ;
#69 = APPROVAL_PERSON_ORGANIZATION ( #118, #82, #189 ) ;
#70 = ADVANCED_FACE ( 'NONE', ( #216, #98 ), #179, .T. ) ;
#71 = ORIENTED_EDGE ( 'NONE', *, *, #178, .T. ) ;
#72 = FACE_BOUND ( 'NONE', #104, .T. ) ;
#73 = CARTESIAN_POINT ( 'NONE',  ( 0.0000000000000000000, 0.0000000000000000000, 0.0000000000000000000 ) ) ;
#74 = DIRECTION ( 'NONE',  ( -4.275831445896959482E-31, -1.000000000000000000, -1.224646799147353207E-16 ) ) ;
#75 = LOCAL_TIME ( 13, 56, 30.00000000000000000, #96 ) ;
#76 =( LENGTH_UNIT ( ) NAMED_UNIT ( * ) SI_UNIT ( .MILLI., .METRE. ) );
#77 = DIRECTION ( 'NONE',  ( 0.0000000000000000000, 1.000000000000000000, 0.0000000000000000000 ) ) ;
#78 = DATE_AND_TIME ( #167, #138 ) ;
#79 = DIRECTION ( 'NONE',  ( 1.000000000000000000, 0.0000000000000000000, 0.0000000000000000000 ) ) ;
#80 = AXIS2_PLACEMENT_3D ( 'NONE', #84, #197, #241 ) ;
#81 = DIRECTION ( 'NONE',  ( 0.0000000000000000000, 1.000000000000000000, 0.0000000000000000000 ) ) ;
#82 = APPROVAL ( #116, 'UNSPECIFIED' ) ;
#83 = AXIS2_PLACEMENT_3D ( 'NONE', #184, #199, #143 ) ;
#84 = CARTESIAN_POINT ( 'NONE',  ( 4.189777606611760026E-14, -1.469576158976823947E-15, 12.00000000000000000 ) ) ;
#85 = CARTESIAN_POINT ( 'NONE',  ( 2.779219145719134403E-13, 1.999999999999991340, 79.60000000000000853 ) ) ;
#86 =( GEOMETRIC_REPRESENTATION_CONTEXT ( 3 ) GLOBAL_UNCERTAINTY_ASSIGNED_CONTEXT ( ( #9 ) ) GLOBAL_UNIT_ASSIGNED_CONTEXT ( ( #76, #202, #147 ) ) REPRESENTATION_CONTEXT ( 'NONE', 'WORKASPACE' ) );
#87 = FACE_OUTER_BOUND ( 'NONE', #14, .T. ) ;
#88 = CARTESIAN_POINT ( 'NONE',  ( 4.374224010324698519E-14, -1.534271248539047898E-15, 12.52827549630854698 ) ) ;
#89 = DIRECTION ( 'NONE',  ( -3.491481338843133355E-15, 1.224646799147353207E-16, -1.000000000000000000 ) ) ;
#90 = ADVANCED_FACE ( 'NONE', ( #225 ), #60, .F. ) ;
#91 = ORIENTED_EDGE ( 'NONE', *, *, #49, .T. ) ;
#92 = AXIS2_PLACEMENT_3D ( 'NONE', #21, #141, #112 ) ;
#93 = CARTESIAN_POINT ( 'NONE',  ( 4.189777606611760026E-14, 2.305000000000013483, 12.00000000000000000 ) ) ;
#94 = SHAPE_DEFINITION_REPRESENTATION ( #13, #161 ) ;
#95 = PERSON_AND_ORGANIZATION_ROLE ( 'classification_officer' ) ;
#96 = COORDINATED_UNIVERSAL_TIME_OFFSET ( 1, 0, .AHEAD. ) ;
#97 = CIRCLE ( 'NONE', #83, 1.905000000000013571 ) ;
#98 = FACE_OUTER_BOUND ( 'NONE', #130, .T. ) ;
#99 = PERSON_AND_ORGANIZATION ( #238, #102 ) ;
#100 = DIRECTION ( 'NONE',  ( 4.177722222098099015E-31, 1.000000000000000000, 1.175924265168652453E-16 ) ) ;
#101 = DIRECTION ( 'NONE',  ( -3.491481338843133355E-15, 1.224646799147353207E-16, -1.000000000000000000 ) ) ;
#102 = ORGANIZATION ( 'UNSPECIFIED', 'UNSPECIFIED', '' ) ;
#103 = PRODUCT ( '321687', '321687', '', ( #10 ) ) ;
#104 = EDGE_LOOP ( 'NONE', ( #155 ) ) ;
#105 = EDGE_LOOP ( 'NONE', ( #91 ) ) ;
#106 = CC_DESIGN_APPROVAL ( #82, ( #234 ) ) ;
#107 = CLOSED_SHELL ( 'NONE', ( #70, #137, #113, #217 ) ) ;
#108 = DIRECTION ( 'NONE',  ( 0.0000000000000000000, 1.000000000000000000, 0.0000000000000000000 ) ) ;
#109 = ORIENTED_EDGE ( 'NONE', *, *, #32, .F. ) ;
#110 = VERTEX_POINT ( 'NONE', #93 ) ;
#111 = EDGE_LOOP ( 'NONE', ( #25 ) ) ;
#112 = DIRECTION ( 'NONE',  ( 4.275831445896958607E-31, 1.000000000000000000, 1.224646799147353207E-16 ) ) ;
#113 = ADVANCED_FACE ( 'NONE', ( #37 ), #146, .T. ) ;
#114 = CARTESIAN_POINT ( 'NONE',  ( 4.189777606611760026E-14, 1.728473149517800226E-32, 12.00000000000000000 ) ) ;
#115 = CONICAL_SURFACE ( 'NONE', #190, 1.600000000000000977, 0.7853981633974512766 ) ;
#116 = APPROVAL_STATUS ( 'not_yet_approved' ) ;
#117 = DATE_AND_TIME ( #29, #75 ) ;
#118 = PERSON_AND_ORGANIZATION ( #238, #102 ) ;
#119 = PERSON_AND_ORGANIZATION ( #238, #102 ) ;
#120 = CC_DESIGN_DATE_AND_TIME_ASSIGNMENT ( #168, #131, ( #196 ) ) ;
#121 = FACE_OUTER_BOUND ( 'NONE', #53, .T. ) ;
#122 = AXIS2_PLACEMENT_3D ( 'NONE', #142, #182, #159 ) ;
#123 = PLANE ( 'NONE',  #30 ) ;
#124 = DIRECTION ( 'NONE',  ( 4.275831445896958607E-31, 1.000000000000000000, 1.224646799147353207E-16 ) ) ;
#125 = DIRECTION ( 'NONE',  ( -3.491481338843133355E-15, 1.224646799147353207E-16, -1.000000000000000000 ) ) ;
#126 = VERTEX_POINT ( 'NONE', #242 ) ;
#127 = ORIENTED_EDGE ( 'NONE', *, *, #49, .F. ) ;
#128 = CC_DESIGN_PERSON_AND_ORGANIZATION_ASSIGNMENT ( #44, #232, ( #196 ) ) ;
#129 = CARTESIAN_POINT ( 'NONE',  ( 2.793185071074506684E-13, -9.797174393178826052E-15, 80.00000000000000000 ) ) ;
#130 = EDGE_LOOP ( 'NONE', ( #127 ) ) ;
#131 = DATE_TIME_ROLE ( 'creation_date' ) ;
#132 = CC_DESIGN_APPROVAL ( #157, ( #196 ) ) ;
#133 = APPROVAL_ROLE ( '' ) ;
#134 = COORDINATED_UNIVERSAL_TIME_OFFSET ( 1, 0, .AHEAD. ) ;
#135 = APPROVAL_DATE_TIME ( #117, #157 ) ;
#136 = DIRECTION ( 'NONE',  ( -3.491481338843133355E-15, 1.224646799147353207E-16, -1.000000000000000000 ) ) ;
#137 = ADVANCED_FACE ( 'NONE', ( #162 ), #123, .T. ) ;
#138 = LOCAL_TIME ( 13, 56, 30.00000000000000000, #172 ) ;
#139 = CLOSED_SHELL ( 'NONE', ( #90, #54, #22, #64, #207 ) ) ;
#140 = DIRECTION ( 'NONE',  ( 0.0000000000000000000, 1.000000000000000000, 0.0000000000000000000 ) ) ;
#141 = DIRECTION ( 'NONE',  ( -3.491481338843133355E-15, 1.224646799147353207E-16, -1.000000000000000000 ) ) ;
#142 = CARTESIAN_POINT ( 'NONE',  ( 4.189777606611760026E-14, -1.469576158976823947E-15, 12.00000000000000000 ) ) ;
#143 = DIRECTION ( 'NONE',  ( 4.275831445896959482E-31, 1.000000000000000000, 1.224646799147353207E-16 ) ) ;
#144 = AXIS2_PLACEMENT_3D ( 'NONE', #66, #136, #100 ) ;
#145 = EDGE_LOOP ( 'NONE', ( #71 ) ) ;
#146 = PLANE ( 'NONE',  #92 ) ;
#147 =( NAMED_UNIT ( * ) SI_UNIT ( $, .STERADIAN. ) SOLID_ANGLE_UNIT ( ) );
#148 = PERSON_AND_ORGANIZATION ( #238, #102 ) ;
#149 = PERSON_AND_ORGANIZATION_ROLE ( 'design_supplier' ) ;
#150 = PERSON_AND_ORGANIZATION ( #238, #102 ) ;
#151 = CC_DESIGN_DATE_AND_TIME_ASSIGNMENT ( #78, #62, ( #7 ) ) ;
#152 = APPROVAL_STATUS ( 'not_yet_approved' ) ;
#153 = EDGE_CURVE ( 'NONE', #110, #110, #156, .T. ) ;
#154 = AXIS2_PLACEMENT_3D ( 'NONE', #180, #17, #81 ) ;
#155 = ORIENTED_EDGE ( 'NONE', *, *, #178, .F. ) ;
#156 = CIRCLE ( 'NONE', #122, 2.305000000000014815 ) ;
#157 = APPROVAL ( #152, 'UNSPECIFIED' ) ;
#158 = APPROVAL_DATE_TIME ( #233, #47 ) ;
#159 = DIRECTION ( 'NONE',  ( 0.0000000000000000000, 1.000000000000000000, 0.0000000000000000000 ) ) ;
#160 = CONICAL_SURFACE ( 'NONE', #227, 1.905000000000013571, 0.7853981633974498333 ) ;
#161 = ADVANCED_BREP_SHAPE_REPRESENTATION ( '321687', ( #175, #173, #177 ), #86 ) ;
#162 = FACE_OUTER_BOUND ( 'NONE', #165, .T. ) ;
#163 = CARTESIAN_POINT ( 'NONE',  ( 4.189777606611760026E-14, 2.305000000000013483, 12.00000000000000000 ) ) ;
#164 = CIRCLE ( 'NONE', #144, 2.305000000000014815 ) ;
#165 = EDGE_LOOP ( 'NONE', ( #5 ) ) ;
#166 = CARTESIAN_POINT ( 'NONE',  ( 4.189777606611760026E-14, 1.728473149517800226E-32, 12.00000000000000000 ) ) ;
#167 = CALENDAR_DATE ( 2021, 2, 12 ) ;
#168 = DATE_AND_TIME ( #45, #195 ) ;
#169 = CALENDAR_DATE ( 2021, 2, 12 ) ;
#170 = CARTESIAN_POINT ( 'NONE',  ( 0.0000000000000000000, 0.0000000000000000000, 0.0000000000000000000 ) ) ;
#171 = EDGE_CURVE ( 'NONE', #41, #41, #55, .T. ) ;
#172 = COORDINATED_UNIVERSAL_TIME_OFFSET ( 1, 0, .AHEAD. ) ;
#173 = MANIFOLD_SOLID_BREP ( 'Corps-Déplacer/Copier1[2]', #107 ) ;
#174 = DIRECTION ( 'NONE',  ( -3.491481338843133355E-15, 1.224646799147353207E-16, -1.000000000000000000 ) ) ;
#175 = MANIFOLD_SOLID_BREP ( 'Corps-Déplacer/Copier1[1]', #139 ) ;
#176 = AXIS2_PLACEMENT_3D ( 'NONE', #1, #125, #39 ) ;
#177 = AXIS2_PLACEMENT_3D ( 'NONE', #170, #213, #79 ) ;
#178 = EDGE_CURVE ( 'NONE', #221, #221, #97, .T. ) ;
#179 = CYLINDRICAL_SURFACE ( 'NONE', #58, 2.305000000000014815 ) ;
#180 = CARTESIAN_POINT ( 'NONE',  ( 2.779219145719134403E-13, -9.748188521212932624E-15, 79.60000000000000853 ) ) ;
#181 = DIRECTION ( 'NONE',  ( 4.275831445896958607E-31, 1.000000000000000000, 1.224646799147353207E-16 ) ) ;
#182 = DIRECTION ( 'NONE',  ( -3.491481338843133355E-15, 1.224646799147353207E-16, -1.000000000000000000 ) ) ;
#183 = DIRECTION ( 'NONE',  ( 3.491481338843133355E-15, -1.224646799147353207E-16, 1.000000000000000000 ) ) ;
#184 = CARTESIAN_POINT ( 'NONE',  ( -8.145458904433765447E-31, 2.857042385970859598E-32, -2.332952152375724511E-16 ) ) ;
#185 = CIRCLE ( 'NONE', #80, 2.305000000000014815 ) ;
#186 = DATE_AND_TIME ( #65, #214 ) ;
#187 = PERSON_AND_ORGANIZATION ( #238, #102 ) ;
#188 = CC_DESIGN_PERSON_AND_ORGANIZATION_ASSIGNMENT ( #99, #95, ( #7 ) ) ;
#189 = APPROVAL_ROLE ( '' ) ;
#190 = AXIS2_PLACEMENT_3D ( 'NONE', #215, #101, #48 ) ;
#191 = PERSON_AND_ORGANIZATION ( #238, #102 ) ;
#192 = CARTESIAN_POINT ( 'NONE',  ( 4.189777606611760026E-14, -1.469576158976823947E-15, 12.00000000000000000 ) ) ;
#193 = FACE_BOUND ( 'NONE', #224, .T. ) ;
#194 = FACE_BOUND ( 'NONE', #52, .T. ) ;
#195 = LOCAL_TIME ( 13, 56, 30.00000000000000000, #211 ) ;
#196 = PRODUCT_DEFINITION ( 'UNKNOWN', '', #234, #33 ) ;
#197 = DIRECTION ( 'NONE',  ( -3.491481338843133355E-15, 1.224646799147353207E-16, -1.000000000000000000 ) ) ;
#198 = CYLINDRICAL_SURFACE ( 'NONE', #237, 1.999999999999996669 ) ;
#199 = DIRECTION ( 'NONE',  ( -3.491481338843133355E-15, 1.224646799147353207E-16, -1.000000000000000000 ) ) ;
#200 = ORIENTED_EDGE ( 'NONE', *, *, #153, .T. ) ;
#201 = VERTEX_POINT ( 'NONE', #85 ) ;
#202 =( NAMED_UNIT ( * ) PLANE_ANGLE_UNIT ( ) SI_UNIT ( $, .RADIAN. ) );
#203 = CIRCLE ( 'NONE', #154, 2.000000000000000888 ) ;
#204 = VERTEX_POINT ( 'NONE', #163 ) ;
#205 = ORIENTED_EDGE ( 'NONE', *, *, #11, .F. ) ;
#206 = DIRECTION ( 'NONE',  ( 3.491481338843133355E-15, -1.224646799147353207E-16, 1.000000000000000000 ) ) ;
#207 = ADVANCED_FACE ( 'NONE', ( #87 ), #18, .F. ) ;
#208 = APPLICATION_PROTOCOL_DEFINITION ( 'international standard', 'config_control_design', 1994, #20 ) ;
#209 = AXIS2_PLACEMENT_3D ( 'NONE', #129, #89, #108 ) ;
#210 = PERSON_AND_ORGANIZATION_ROLE ( 'design_owner' ) ;
#211 = COORDINATED_UNIVERSAL_TIME_OFFSET ( 1, 0, .AHEAD. ) ;
#212 = CC_DESIGN_APPROVAL ( #47, ( #7 ) ) ;
#213 = DIRECTION ( 'NONE',  ( 0.0000000000000000000, 0.0000000000000000000, 1.000000000000000000 ) ) ;
#214 = LOCAL_TIME ( 13, 56, 30.00000000000000000, #235 ) ;
#215 = CARTESIAN_POINT ( 'NONE',  ( 2.793185071074506684E-13, -9.797174393178826052E-15, 80.00000000000000000 ) ) ;
#216 = FACE_OUTER_BOUND ( 'NONE', #218, .T. ) ;
#217 = ADVANCED_FACE ( 'NONE', ( #23, #72 ), #160, .T. ) ;
#218 = EDGE_LOOP ( 'NONE', ( #200 ) ) ;
#219 = CONICAL_SURFACE ( 'NONE', #12, 2.305000000000014815, 0.5235987755982993708 ) ;
#220 = EDGE_LOOP ( 'NONE', ( #222 ) ) ;
#221 = VERTEX_POINT ( 'NONE', #6 ) ;
#222 = ORIENTED_EDGE ( 'NONE', *, *, #32, .T. ) ;
#223 = CARTESIAN_POINT ( 'NONE',  ( 4.374224010324698519E-14, 1.999999999999990452, 12.52827549630854698 ) ) ;
#224 = EDGE_LOOP ( 'NONE', ( #42 ) ) ;
#225 = FACE_OUTER_BOUND ( 'NONE', #228, .T. ) ;
#226 = CC_DESIGN_PERSON_AND_ORGANIZATION_ASSIGNMENT ( #191, #149, ( #234 ) ) ;
#227 = AXIS2_PLACEMENT_3D ( 'NONE', #3, #231, #74 ) ;
#228 = EDGE_LOOP ( 'NONE', ( #34 ) ) ;
#229 = EDGE_CURVE ( 'NONE', #43, #43, #63, .T. ) ;
#230 = ORIENTED_EDGE ( 'NONE', *, *, #229, .F. ) ;
#231 = DIRECTION ( 'NONE',  ( 3.491481338843133355E-15, -1.224646799147353207E-16, 1.000000000000000000 ) ) ;
#232 = PERSON_AND_ORGANIZATION_ROLE ( 'creator' ) ;
#233 = DATE_AND_TIME ( #169, #67 ) ;
#234 = PRODUCT_DEFINITION_FORMATION_WITH_SPECIFIED_SOURCE ( 'ANY', '', #103, .NOT_KNOWN. ) ;
#235 = COORDINATED_UNIVERSAL_TIME_OFFSET ( 1, 0, .AHEAD. ) ;
#236 = CC_DESIGN_SECURITY_CLASSIFICATION ( #7, ( #234 ) ) ;
#237 = AXIS2_PLACEMENT_3D ( 'NONE', #36, #56, #124 ) ;
#238 = PERSON ( 'UNSPECIFIED', 'UNSPECIFIED', 'UNSPECIFIED', ('UNSPECIFIED'), ('UNSPECIFIED'), ('UNSPECIFIED') ) ;
#239 = AXIS2_PLACEMENT_3D ( 'NONE', #88, #59, #77 ) ;
#240 = FACE_OUTER_BOUND ( 'NONE', #220, .T. ) ;
#241 = DIRECTION ( 'NONE',  ( 0.0000000000000000000, 1.000000000000000000, 0.0000000000000000000 ) ) ;
#242 = CARTESIAN_POINT ( 'NONE',  ( 1.396592535537253737E-15, 2.305000000000014815, 0.4000000000000000777 ) ) ;
#243 = APPROVAL_PERSON_ORGANIZATION ( #187, #157, #133 ) ;
ENDSEC;
END-ISO-10303-21;
