ISO-10303-21;
HEADER;
FILE_DESCRIPTION (( 'STEP AP203' ),
    '1' );
FILE_NAME ('321686.step',
    '2021-12-02T12:56:30',
    ( '' ),
    ( '' ),
    'SwSTEP 2.0',
    'SolidWorks 2019',
    '' );
FILE_SCHEMA (( 'CONFIG_CONTROL_DESIGN' ));
ENDSEC;

DATA;
#1 = APPLICATION_CONTEXT ( 'configuration controlled 3d designs of mechanical parts and assemblies' ) ;
#2 = DIRECTION ( 'NONE',  ( 0.0000000000000000000, 1.000000000000000000, 0.0000000000000000000 ) ) ;
#3 = CIRCLE ( 'NONE', #38, 1.999999999999992228 ) ;
#4 = APPLICATION_PROTOCOL_DEFINITION ( 'international standard', 'config_control_design', 1994, #1 ) ;
#5 = VERTEX_POINT ( 'NONE', #90 ) ;
#6 = CLOSED_SHELL ( 'NONE', ( #120, #220, #122, #125, #192 ) ) ;
#7 = VERTEX_POINT ( 'NONE', #9 ) ;
#8 = AXIS2_PLACEMENT_3D ( 'NONE', #206, #62, #222 ) ;
#9 = CARTESIAN_POINT ( 'NONE',  ( 2.793185071074506684E-13, 1.599999999999991207, 80.00000000000000000 ) ) ;
#10 = ORIENTED_EDGE ( 'NONE', *, *, #179, .F. ) ;
#11 = ORIENTED_EDGE ( 'NONE', *, *, #44, .T. ) ;
#12 = CC_DESIGN_PERSON_AND_ORGANIZATION_ASSIGNMENT ( #16, #201, ( #129 ) ) ;
#13 = AXIS2_PLACEMENT_3D ( 'NONE', #144, #65, #99 ) ;
#14 = LOCAL_TIME ( 13, 56, 30.00000000000000000, #228 ) ;
#15 = FACE_BOUND ( 'NONE', #175, .T. ) ;
#16 = PERSON_AND_ORGANIZATION ( #47, #235 ) ;
#17 = CARTESIAN_POINT ( 'NONE',  ( 1.396592535537252750E-15, -4.898587196589410610E-17, 0.3999999999999998002 ) ) ;
#18 = APPROVAL_STATUS ( 'not_yet_approved' ) ;
#19 = MANIFOLD_SOLID_BREP ( 'Corps-Déplacer/Copier1[1]', #6 ) ;
#20 = PLANE ( 'NONE',  #61 ) ;
#21 = AXIS2_PLACEMENT_3D ( 'NONE', #40, #97, #205 ) ;
#22 = MANIFOLD_SOLID_BREP ( 'Corps-Déplacer/Copier1[2]', #161 ) ;
#23 = PLANE ( 'NONE',  #77 ) ;
#24 = DIRECTION ( 'NONE',  ( 4.186804226928746672E-31, 1.000000000000000000, 1.178480622266845068E-16 ) ) ;
#25 =( NAMED_UNIT ( * ) SI_UNIT ( $, .STERADIAN. ) SOLID_ANGLE_UNIT ( ) );
#26 = AXIS2_PLACEMENT_3D ( 'NONE', #135, #164, #153 ) ;
#27 = CALENDAR_DATE ( 2021, 2, 12 ) ;
#28 = DIRECTION ( 'NONE',  ( 0.0000000000000000000, 1.000000000000000000, 0.0000000000000000000 ) ) ;
#29 = CALENDAR_DATE ( 2021, 2, 12 ) ;
#30 = CARTESIAN_POINT ( 'NONE',  ( 4.189777606611760026E-14, 2.300000000000013589, 12.00000000000000000 ) ) ;
#31 = LOCAL_TIME ( 13, 56, 30.00000000000000000, #72 ) ;
#32 = EDGE_LOOP ( 'NONE', ( #112 ) ) ;
#33 = EDGE_LOOP ( 'NONE', ( #131 ) ) ;
#34 = EDGE_LOOP ( 'NONE', ( #111 ) ) ;
#35 = DATE_TIME_ROLE ( 'classification_date' ) ;
#36 = APPROVAL ( #18, 'UNSPECIFIED' ) ;
#37 = CARTESIAN_POINT ( 'NONE',  ( 2.779219145719134403E-13, -9.748188521212932624E-15, 79.60000000000000853 ) ) ;
#38 = AXIS2_PLACEMENT_3D ( 'NONE', #182, #121, #118 ) ;
#39 = SECURITY_CLASSIFICATION_LEVEL ( 'unclassified' ) ;
#40 = CARTESIAN_POINT ( 'NONE',  ( 2.793185071074506684E-13, 1.199807826129472128E-32, 80.00000000000000000 ) ) ;
#41 = DATE_AND_TIME ( #204, #81 ) ;
#42 = FACE_BOUND ( 'NONE', #216, .T. ) ;
#43 = DIRECTION ( 'NONE',  ( -4.275831445896958607E-31, -1.000000000000000000, -1.224646799147353207E-16 ) ) ;
#44 = EDGE_CURVE ( 'NONE', #7, #7, #225, .T. ) ;
#45 = FACE_OUTER_BOUND ( 'NONE', #93, .T. ) ;
#46 = PRODUCT ( '321686', '321686', '', ( #214 ) ) ;
#47 = PERSON ( 'UNSPECIFIED', 'UNSPECIFIED', 'UNSPECIFIED', ('UNSPECIFIED'), ('UNSPECIFIED'), ('UNSPECIFIED') ) ;
#48 = CARTESIAN_POINT ( 'NONE',  ( 1.710569414459005214E-46, 1.900000000000013456, 0.0000000000000000000 ) ) ;
#49 = PRODUCT_RELATED_PRODUCT_CATEGORY ( 'detail', '', ( #46 ) ) ;
#50 = DATE_AND_TIME ( #140, #31 ) ;
#51 = AXIS2_PLACEMENT_3D ( 'NONE', #80, #184, #166 ) ;
#52 = CC_DESIGN_APPROVAL ( #36, ( #137 ) ) ;
#53 = APPROVAL_STATUS ( 'not_yet_approved' ) ;
#54 = APPROVAL ( #53, 'UNSPECIFIED' ) ;
#55 = CIRCLE ( 'NONE', #66, 2.000000000000000888 ) ;
#56 = CALENDAR_DATE ( 2021, 2, 12 ) ;
#57 = EDGE_LOOP ( 'NONE', ( #130 ) ) ;
#58 = AXIS2_PLACEMENT_3D ( 'NONE', #165, #242, #83 ) ;
#59 = CYLINDRICAL_SURFACE ( 'NONE', #70, 2.300000000000014921 ) ;
#60 = PLANE ( 'NONE',  #21 ) ;
#61 = AXIS2_PLACEMENT_3D ( 'NONE', #200, #167, #43 ) ;
#62 = DIRECTION ( 'NONE',  ( -3.491481338843133355E-15, 1.224646799147353207E-16, -1.000000000000000000 ) ) ;
#63 = CARTESIAN_POINT ( 'NONE',  ( 0.0000000000000000000, 0.0000000000000000000, 0.0000000000000000000 ) ) ;
#64 = EDGE_CURVE ( 'NONE', #172, #172, #176, .T. ) ;
#65 = DIRECTION ( 'NONE',  ( -3.491481338843133355E-15, 1.224646799147353207E-16, -1.000000000000000000 ) ) ;
#66 = AXIS2_PLACEMENT_3D ( 'NONE', #37, #241, #2 ) ;
#67 = EDGE_CURVE ( 'NONE', #155, #155, #215, .T. ) ;
#68 = APPROVAL_DATE_TIME ( #73, #156 ) ;
#69 =( NAMED_UNIT ( * ) PLANE_ANGLE_UNIT ( ) SI_UNIT ( $, .RADIAN. ) );
#70 = AXIS2_PLACEMENT_3D ( 'NONE', #63, #85, #152 ) ;
#71 = CC_DESIGN_PERSON_AND_ORGANIZATION_ASSIGNMENT ( #128, #229, ( #46 ) ) ;
#72 = COORDINATED_UNIVERSAL_TIME_OFFSET ( 1, 0, .AHEAD. ) ;
#73 = DATE_AND_TIME ( #27, #14 ) ;
#74 = PERSON_AND_ORGANIZATION_ROLE ( 'creator' ) ;
#75 = EDGE_LOOP ( 'NONE', ( #160 ) ) ;
#76 = CC_DESIGN_PERSON_AND_ORGANIZATION_ASSIGNMENT ( #107, #74, ( #129 ) ) ;
#77 = AXIS2_PLACEMENT_3D ( 'NONE', #149, #243, #188 ) ;
#78 = EDGE_CURVE ( 'NONE', #157, #157, #3, .T. ) ;
#79 = FACE_OUTER_BOUND ( 'NONE', #75, .T. ) ;
#80 = CARTESIAN_POINT ( 'NONE',  ( -8.124079747204277229E-31, 2.849543587057549708E-32, -2.326828918379987635E-16 ) ) ;
#81 = LOCAL_TIME ( 13, 56, 30.00000000000000000, #218 ) ;
#82 = CONICAL_SURFACE ( 'NONE', #8, 1.600000000000000977, 0.7853981633974512766 ) ;
#83 = DIRECTION ( 'NONE',  ( 0.0000000000000000000, 1.000000000000000000, 0.0000000000000000000 ) ) ;
#84 = CYLINDRICAL_SURFACE ( 'NONE', #26, 1.999999999999996669 ) ;
#85 = DIRECTION ( 'NONE',  ( -3.491481338843133355E-15, 1.224646799147353207E-16, -1.000000000000000000 ) ) ;
#86 = CARTESIAN_POINT ( 'NONE',  ( 4.189777606611760026E-14, 2.300000000000013589, 12.00000000000000000 ) ) ;
#87 = CARTESIAN_POINT ( 'NONE',  ( 4.371200298788420383E-14, 1.999999999999990452, 12.51961524227070122 ) ) ;
#88 = PRODUCT_DEFINITION ( 'UNKNOWN', '', #129, #142 ) ;
#89 = AXIS2_PLACEMENT_3D ( 'NONE', #147, #101, #219 ) ;
#90 = CARTESIAN_POINT ( 'NONE',  ( 1.396592535537253737E-15, 2.300000000000014921, 0.4000000000000000777 ) ) ;
#91 = VERTEX_POINT ( 'NONE', #226 ) ;
#92 = EDGE_LOOP ( 'NONE', ( #11 ) ) ;
#93 = EDGE_LOOP ( 'NONE', ( #108 ) ) ;
#94 = PERSON_AND_ORGANIZATION ( #47, #235 ) ;
#95 = CARTESIAN_POINT ( 'NONE',  ( 4.189777606611760026E-14, -1.469576158976823947E-15, 12.00000000000000000 ) ) ;
#96 = SHAPE_DEFINITION_REPRESENTATION ( #139, #148 ) ;
#97 = DIRECTION ( 'NONE',  ( -3.491481338843133355E-15, 1.224646799147353207E-16, -1.000000000000000000 ) ) ;
#98 = FACE_OUTER_BOUND ( 'NONE', #57, .T. ) ;
#99 = DIRECTION ( 'NONE',  ( 0.0000000000000000000, 1.000000000000000000, 0.0000000000000000000 ) ) ;
#100 = CC_DESIGN_DATE_AND_TIME_ASSIGNMENT ( #50, #213, ( #88 ) ) ;
#101 = DIRECTION ( 'NONE',  ( -3.491481338843133355E-15, 1.224646799147353207E-16, -1.000000000000000000 ) ) ;
#102 = LOCAL_TIME ( 13, 56, 30.00000000000000000, #238 ) ;
#103 = PERSON_AND_ORGANIZATION ( #47, #235 ) ;
#104 = DIRECTION ( 'NONE',  ( 0.0000000000000000000, 0.0000000000000000000, 1.000000000000000000 ) ) ;
#105 = ADVANCED_FACE ( 'NONE', ( #45, #15 ), #211, .T. ) ;
#106 = CIRCLE ( 'NONE', #181, 2.300000000000014921 ) ;
#107 = PERSON_AND_ORGANIZATION ( #47, #235 ) ;
#108 = ORIENTED_EDGE ( 'NONE', *, *, #179, .T. ) ;
#109 = ORIENTED_EDGE ( 'NONE', *, *, #64, .F. ) ;
#110 = ORIENTED_EDGE ( 'NONE', *, *, #78, .T. ) ;
#111 = ORIENTED_EDGE ( 'NONE', *, *, #190, .T. ) ;
#112 = ORIENTED_EDGE ( 'NONE', *, *, #67, .T. ) ;
#113 = AXIS2_PLACEMENT_3D ( 'NONE', #95, #117, #151 ) ;
#114 = FACE_OUTER_BOUND ( 'NONE', #237, .T. ) ;
#115 = DATE_AND_TIME ( #56, #102 ) ;
#116 = CARTESIAN_POINT ( 'NONE',  ( -8.124079747204277229E-31, 2.849543587057549708E-32, -2.326828918379987635E-16 ) ) ;
#117 = DIRECTION ( 'NONE',  ( -3.491481338843133355E-15, 1.224646799147353207E-16, -1.000000000000000000 ) ) ;
#118 = DIRECTION ( 'NONE',  ( 0.0000000000000000000, 1.000000000000000000, 0.0000000000000000000 ) ) ;
#119 = APPROVAL_PERSON_ORGANIZATION ( #240, #36, #183 ) ;
#120 = ADVANCED_FACE ( 'NONE', ( #224 ), #23, .F. ) ;
#121 = DIRECTION ( 'NONE',  ( -3.491481338843133355E-15, 1.224646799147353207E-16, -1.000000000000000000 ) ) ;
#122 = ADVANCED_FACE ( 'NONE', ( #132, #185 ), #84, .T. ) ;
#123 = APPROVAL_STATUS ( 'not_yet_approved' ) ;
#124 = CARTESIAN_POINT ( 'NONE',  ( 0.0000000000000000000, 0.0000000000000000000, 0.0000000000000000000 ) ) ;
#125 = ADVANCED_FACE ( 'NONE', ( #133, #239 ), #82, .T. ) ;
#126 = APPROVAL_ROLE ( '' ) ;
#127 = ADVANCED_FACE ( 'NONE', ( #136, #163 ), #59, .T. ) ;
#128 = PERSON_AND_ORGANIZATION ( #47, #235 ) ;
#129 = PRODUCT_DEFINITION_FORMATION_WITH_SPECIFIED_SOURCE ( 'ANY', '', #46, .NOT_KNOWN. ) ;
#130 = ORIENTED_EDGE ( 'NONE', *, *, #67, .F. ) ;
#131 = ORIENTED_EDGE ( 'NONE', *, *, #233, .F. ) ;
#132 = FACE_OUTER_BOUND ( 'NONE', #180, .T. ) ;
#133 = FACE_OUTER_BOUND ( 'NONE', #145, .T. ) ;
#134 = FACE_OUTER_BOUND ( 'NONE', #33, .T. ) ;
#135 = CARTESIAN_POINT ( 'NONE',  ( 0.0000000000000000000, 0.0000000000000000000, 0.0000000000000000000 ) ) ;
#136 = FACE_OUTER_BOUND ( 'NONE', #234, .T. ) ;
#137 = SECURITY_CLASSIFICATION ( '', '', #39 ) ;
#138 = VERTEX_POINT ( 'NONE', #86 ) ;
#139 = PRODUCT_DEFINITION_SHAPE ( 'NONE', 'NONE',  #88 ) ;
#140 = CALENDAR_DATE ( 2021, 2, 12 ) ;
#141 = DATE_AND_TIME ( #29, #177 ) ;
#142 = DESIGN_CONTEXT ( 'detailed design', #1, 'design' ) ;
#143 = APPLICATION_CONTEXT ( 'configuration controlled 3d designs of mechanical parts and assemblies' ) ;
#144 = CARTESIAN_POINT ( 'NONE',  ( 2.793185071074506684E-13, -9.797174393178826052E-15, 80.00000000000000000 ) ) ;
#145 = EDGE_LOOP ( 'NONE', ( #231 ) ) ;
#146 = CC_DESIGN_PERSON_AND_ORGANIZATION_ASSIGNMENT ( #94, #236, ( #137 ) ) ;
#147 = CARTESIAN_POINT ( 'NONE',  ( -4.062039873602138615E-31, 1.424771793528774854E-32, -1.163414459189993818E-16 ) ) ;
#148 = ADVANCED_BREP_SHAPE_REPRESENTATION ( '321686', ( #19, #22, #202 ), #221 ) ;
#149 = CARTESIAN_POINT ( 'NONE',  ( 4.189777606611760026E-14, 1.724723750061145281E-32, 12.00000000000000000 ) ) ;
#150 = CC_DESIGN_APPROVAL ( #156, ( #88 ) ) ;
#151 = DIRECTION ( 'NONE',  ( 0.0000000000000000000, 1.000000000000000000, 0.0000000000000000000 ) ) ;
#152 = DIRECTION ( 'NONE',  ( 4.275831445896957731E-31, 1.000000000000000000, 1.224646799147352961E-16 ) ) ;
#153 = DIRECTION ( 'NONE',  ( 4.275831445896958607E-31, 1.000000000000000000, 1.224646799147353207E-16 ) ) ;
#154 = APPROVAL_PERSON_ORGANIZATION ( #227, #156, #170 ) ;
#155 = VERTEX_POINT ( 'NONE', #30 ) ;
#156 = APPROVAL ( #123, 'UNSPECIFIED' ) ;
#157 = VERTEX_POINT ( 'NONE', #87 ) ;
#158 = AXIS2_PLACEMENT_3D ( 'NONE', #116, #186, #203 ) ;
#159 = ORIENTED_EDGE ( 'NONE', *, *, #44, .F. ) ;
#160 = ORIENTED_EDGE ( 'NONE', *, *, #64, .T. ) ;
#161 = CLOSED_SHELL ( 'NONE', ( #127, #189, #187, #105 ) ) ;
#162 = APPROVAL_DATE_TIME ( #115, #36 ) ;
#163 = FACE_OUTER_BOUND ( 'NONE', #217, .T. ) ;
#164 = DIRECTION ( 'NONE',  ( -3.491481338843133355E-15, 1.224646799147353207E-16, -1.000000000000000000 ) ) ;
#165 = CARTESIAN_POINT ( 'NONE',  ( 4.189777606611760026E-14, -1.469576158976823947E-15, 12.00000000000000000 ) ) ;
#166 = DIRECTION ( 'NONE',  ( 4.275831445896958607E-31, 1.000000000000000000, 1.224646799147353207E-16 ) ) ;
#167 = DIRECTION ( 'NONE',  ( 3.491481338843133355E-15, -1.224646799147353207E-16, 1.000000000000000000 ) ) ;
#168 = CARTESIAN_POINT ( 'NONE',  ( 4.189777606611760026E-14, -1.469576158976823947E-15, 12.00000000000000000 ) ) ;
#169 = PERSON_AND_ORGANIZATION ( #47, #235 ) ;
#170 = APPROVAL_ROLE ( '' ) ;
#171 = PERSON_AND_ORGANIZATION_ROLE ( 'creator' ) ;
#172 = VERTEX_POINT ( 'NONE', #48 ) ;
#173 = ORIENTED_EDGE ( 'NONE', *, *, #78, .F. ) ;
#174 = CC_DESIGN_PERSON_AND_ORGANIZATION_ASSIGNMENT ( #103, #171, ( #88 ) ) ;
#175 = EDGE_LOOP ( 'NONE', ( #109 ) ) ;
#176 = CIRCLE ( 'NONE', #51, 1.900000000000013456 ) ;
#177 = LOCAL_TIME ( 13, 56, 30.00000000000000000, #196 ) ;
#178 = ORIENTED_EDGE ( 'NONE', *, *, #233, .T. ) ;
#179 = EDGE_CURVE ( 'NONE', #5, #5, #207, .T. ) ;
#180 = EDGE_LOOP ( 'NONE', ( #173 ) ) ;
#181 = AXIS2_PLACEMENT_3D ( 'NONE', #168, #195, #28 ) ;
#182 = CARTESIAN_POINT ( 'NONE',  ( 4.371200298788420383E-14, -1.533210673300323051E-15, 12.51961524227070122 ) ) ;
#183 = APPROVAL_ROLE ( '' ) ;
#184 = DIRECTION ( 'NONE',  ( -3.491481338843133355E-15, 1.224646799147353207E-16, -1.000000000000000000 ) ) ;
#185 = FACE_OUTER_BOUND ( 'NONE', #34, .T. ) ;
#186 = DIRECTION ( 'NONE',  ( 3.491481338843133355E-15, -1.224646799147353207E-16, 1.000000000000000000 ) ) ;
#187 = ADVANCED_FACE ( 'NONE', ( #79 ), #223, .T. ) ;
#188 = DIRECTION ( 'NONE',  ( -4.275831445896958607E-31, -1.000000000000000000, -1.224646799147353207E-16 ) ) ;
#189 = ADVANCED_FACE ( 'NONE', ( #134 ), #20, .T. ) ;
#190 = EDGE_CURVE ( 'NONE', #91, #91, #55, .T. ) ;
#191 =( LENGTH_UNIT ( ) NAMED_UNIT ( * ) SI_UNIT ( .MILLI., .METRE. ) );
#192 = ADVANCED_FACE ( 'NONE', ( #114 ), #60, .F. ) ;
#193 = APPLICATION_PROTOCOL_DEFINITION ( 'international standard', 'config_control_design', 1994, #143 ) ;
#194 = CC_DESIGN_APPROVAL ( #54, ( #129 ) ) ;
#195 = DIRECTION ( 'NONE',  ( -3.491481338843133355E-15, 1.224646799147353207E-16, -1.000000000000000000 ) ) ;
#196 = COORDINATED_UNIVERSAL_TIME_OFFSET ( 1, 0, .AHEAD. ) ;
#197 = APPROVAL_DATE_TIME ( #141, #54 ) ;
#198 = APPROVAL_PERSON_ORGANIZATION ( #169, #54, #126 ) ;
#199 = CC_DESIGN_SECURITY_CLASSIFICATION ( #137, ( #129 ) ) ;
#200 = CARTESIAN_POINT ( 'NONE',  ( 4.189777606611760026E-14, 1.724723750061145281E-32, 12.00000000000000000 ) ) ;
#201 = PERSON_AND_ORGANIZATION_ROLE ( 'design_supplier' ) ;
#202 = AXIS2_PLACEMENT_3D ( 'NONE', #124, #104, #210 ) ;
#203 = DIRECTION ( 'NONE',  ( -4.275831445896957731E-31, -1.000000000000000000, -1.224646799147353207E-16 ) ) ;
#204 = CALENDAR_DATE ( 2021, 2, 12 ) ;
#205 = DIRECTION ( 'NONE',  ( 4.275831445896958607E-31, 1.000000000000000000, 1.224646799147353207E-16 ) ) ;
#206 = CARTESIAN_POINT ( 'NONE',  ( 2.793185071074506684E-13, -9.797174393178826052E-15, 80.00000000000000000 ) ) ;
#207 = CIRCLE ( 'NONE', #230, 2.300000000000014921 ) ;
#208 = DIRECTION ( 'NONE',  ( -3.491481338843133355E-15, 1.224646799147353207E-16, -1.000000000000000000 ) ) ;
#209 = CC_DESIGN_DATE_AND_TIME_ASSIGNMENT ( #41, #35, ( #137 ) ) ;
#210 = DIRECTION ( 'NONE',  ( 1.000000000000000000, 0.0000000000000000000, 0.0000000000000000000 ) ) ;
#211 = CONICAL_SURFACE ( 'NONE', #158, 1.900000000000013456, 0.7853981633974498333 ) ;
#212 = CONICAL_SURFACE ( 'NONE', #58, 2.300000000000014921, 0.5235987755982995928 ) ;
#213 = DATE_TIME_ROLE ( 'creation_date' ) ;
#214 = MECHANICAL_CONTEXT ( 'NONE', #143, 'mechanical' ) ;
#215 = CIRCLE ( 'NONE', #113, 2.300000000000014921 ) ;
#216 = EDGE_LOOP ( 'NONE', ( #110 ) ) ;
#217 = EDGE_LOOP ( 'NONE', ( #10 ) ) ;
#218 = COORDINATED_UNIVERSAL_TIME_OFFSET ( 1, 0, .AHEAD. ) ;
#219 = DIRECTION ( 'NONE',  ( 4.275831445896958607E-31, 1.000000000000000000, 1.224646799147353207E-16 ) ) ;
#220 = ADVANCED_FACE ( 'NONE', ( #42, #98 ), #212, .T. ) ;
#221 =( GEOMETRIC_REPRESENTATION_CONTEXT ( 3 ) GLOBAL_UNCERTAINTY_ASSIGNED_CONTEXT ( ( #232 ) ) GLOBAL_UNIT_ASSIGNED_CONTEXT ( ( #191, #69, #25 ) ) REPRESENTATION_CONTEXT ( 'NONE', 'WORKASPACE' ) );
#222 = DIRECTION ( 'NONE',  ( 0.0000000000000000000, 1.000000000000000000, 0.0000000000000000000 ) ) ;
#223 = PLANE ( 'NONE',  #89 ) ;
#224 = FACE_OUTER_BOUND ( 'NONE', #32, .T. ) ;
#225 = CIRCLE ( 'NONE', #13, 1.600000000000000977 ) ;
#226 = CARTESIAN_POINT ( 'NONE',  ( 2.779219145719134403E-13, 1.999999999999991340, 79.60000000000000853 ) ) ;
#227 = PERSON_AND_ORGANIZATION ( #47, #235 ) ;
#228 = COORDINATED_UNIVERSAL_TIME_OFFSET ( 1, 0, .AHEAD. ) ;
#229 = PERSON_AND_ORGANIZATION_ROLE ( 'design_owner' ) ;
#230 = AXIS2_PLACEMENT_3D ( 'NONE', #17, #208, #24 ) ;
#231 = ORIENTED_EDGE ( 'NONE', *, *, #190, .F. ) ;
#232 = UNCERTAINTY_MEASURE_WITH_UNIT (LENGTH_MEASURE( 1.000000000000000082E-05 ), #191, 'distance_accuracy_value', 'NONE');
#233 = EDGE_CURVE ( 'NONE', #138, #138, #106, .T. ) ;
#234 = EDGE_LOOP ( 'NONE', ( #178 ) ) ;
#235 = ORGANIZATION ( 'UNSPECIFIED', 'UNSPECIFIED', '' ) ;
#236 = PERSON_AND_ORGANIZATION_ROLE ( 'classification_officer' ) ;
#237 = EDGE_LOOP ( 'NONE', ( #159 ) ) ;
#238 = COORDINATED_UNIVERSAL_TIME_OFFSET ( 1, 0, .AHEAD. ) ;
#239 = FACE_BOUND ( 'NONE', #92, .T. ) ;
#240 = PERSON_AND_ORGANIZATION ( #47, #235 ) ;
#241 = DIRECTION ( 'NONE',  ( -3.491481338843133355E-15, 1.224646799147353207E-16, -1.000000000000000000 ) ) ;
#242 = DIRECTION ( 'NONE',  ( -3.491481338843133355E-15, 1.224646799147353207E-16, -1.000000000000000000 ) ) ;
#243 = DIRECTION ( 'NONE',  ( 3.491481338843133355E-15, -1.224646799147353207E-16, 1.000000000000000000 ) ) ;
ENDSEC;
END-ISO-10303-21;
