ISO-10303-21;
HEADER;
FILE_DESCRIPTION (( 'STEP AP203' ),
    '1' );
FILE_NAME ('321685.step',
    '2021-12-02T12:56:29',
    ( '' ),
    ( '' ),
    'SwSTEP 2.0',
    'SolidWorks 2019',
    '' );
FILE_SCHEMA (( 'CONFIG_CONTROL_DESIGN' ));
ENDSEC;

DATA;
#1 = EDGE_LOOP ( 'NONE', ( #158 ) ) ;
#2 = APPROVAL_ROLE ( '' ) ;
#3 = DIRECTION ( 'NONE',  ( 4.275831445896958607E-31, 1.000000000000000000, 1.224646799147353207E-16 ) ) ;
#4 = DIRECTION ( 'NONE',  ( -3.491481338843133355E-15, 1.224646799147353207E-16, -1.000000000000000000 ) ) ;
#5 = FACE_OUTER_BOUND ( 'NONE', #209, .T. ) ;
#6 =( GEOMETRIC_REPRESENTATION_CONTEXT ( 3 ) GLOBAL_UNCERTAINTY_ASSIGNED_CONTEXT ( ( #31 ) ) GLOBAL_UNIT_ASSIGNED_CONTEXT ( ( #206, #240, #14 ) ) REPRESENTATION_CONTEXT ( 'NONE', 'WORKASPACE' ) );
#7 = DIRECTION ( 'NONE',  ( -3.491481338843133355E-15, 1.224646799147353207E-16, -1.000000000000000000 ) ) ;
#8 = FACE_BOUND ( 'NONE', #170, .T. ) ;
#9 = PERSON_AND_ORGANIZATION_ROLE ( 'creator' ) ;
#10 = VERTEX_POINT ( 'NONE', #222 ) ;
#11 = CC_DESIGN_APPROVAL ( #198, ( #63 ) ) ;
#12 = APPROVAL_ROLE ( '' ) ;
#13 = EDGE_CURVE ( 'NONE', #73, #73, #221, .T. ) ;
#14 =( NAMED_UNIT ( * ) SI_UNIT ( $, .STERADIAN. ) SOLID_ANGLE_UNIT ( ) );
#15 = APPROVAL_PERSON_ORGANIZATION ( #192, #21, #2 ) ;
#16 = ORIENTED_EDGE ( 'NONE', *, *, #184, .F. ) ;
#17 = CARTESIAN_POINT ( 'NONE',  ( 4.189777606611760026E-14, -1.469576158976823947E-15, 12.00000000000000000 ) ) ;
#18 = EDGE_LOOP ( 'NONE', ( #118 ) ) ;
#19 = AXIS2_PLACEMENT_3D ( 'NONE', #164, #178, #159 ) ;
#20 = CC_DESIGN_PERSON_AND_ORGANIZATION_ASSIGNMENT ( #225, #123, ( #48 ) ) ;
#21 = APPROVAL ( #156, 'UNSPECIFIED' ) ;
#22 = CARTESIAN_POINT ( 'NONE',  ( 0.0000000000000000000, 0.0000000000000000000, 0.0000000000000000000 ) ) ;
#23 = FACE_OUTER_BOUND ( 'NONE', #224, .T. ) ;
#24 = ADVANCED_FACE ( 'NONE', ( #23 ), #231, .F. ) ;
#25 = DIRECTION ( 'NONE',  ( 4.275831445896958607E-31, 1.000000000000000000, 1.224646799147353207E-16 ) ) ;
#26 = FACE_OUTER_BOUND ( 'NONE', #45, .T. ) ;
#27 = ORGANIZATION ( 'UNSPECIFIED', 'UNSPECIFIED', '' ) ;
#28 = DIRECTION ( 'NONE',  ( 0.0000000000000000000, 1.000000000000000000, 0.0000000000000000000 ) ) ;
#29 = APPROVAL_DATE_TIME ( #204, #40 ) ;
#30 = APPROVAL_STATUS ( 'not_yet_approved' ) ;
#31 = UNCERTAINTY_MEASURE_WITH_UNIT (LENGTH_MEASURE( 1.000000000000000082E-05 ), #206, 'distance_accuracy_value', 'NONE');
#32 = AXIS2_PLACEMENT_3D ( 'NONE', #145, #104, #216 ) ;
#33 = CARTESIAN_POINT ( 'NONE',  ( 0.0000000000000000000, 0.0000000000000000000, 0.0000000000000000000 ) ) ;
#34 = VERTEX_POINT ( 'NONE', #74 ) ;
#35 = APPLICATION_PROTOCOL_DEFINITION ( 'international standard', 'config_control_design', 1994, #83 ) ;
#36 = CONICAL_SURFACE ( 'NONE', #32, 1.600000000000000977, 0.7853981633974512766 ) ;
#37 = PERSON ( 'UNSPECIFIED', 'UNSPECIFIED', 'UNSPECIFIED', ('UNSPECIFIED'), ('UNSPECIFIED'), ('UNSPECIFIED') ) ;
#38 = CALENDAR_DATE ( 2021, 2, 12 ) ;
#39 = CC_DESIGN_PERSON_AND_ORGANIZATION_ASSIGNMENT ( #102, #101, ( #155 ) ) ;
#40 = APPROVAL ( #188, 'UNSPECIFIED' ) ;
#41 = SHAPE_DEFINITION_REPRESENTATION ( #111, #141 ) ;
#42 = EDGE_LOOP ( 'NONE', ( #60 ) ) ;
#43 = CONICAL_SURFACE ( 'NONE', #117, 2.295000000000015028, 0.5235987755982992597 ) ;
#44 = APPROVAL_DATE_TIME ( #208, #21 ) ;
#45 = EDGE_LOOP ( 'NONE', ( #126 ) ) ;
#46 = EDGE_LOOP ( 'NONE', ( #124 ) ) ;
#47 = CARTESIAN_POINT ( 'NONE',  ( 2.793185071074506684E-13, -9.797174393178826052E-15, 80.00000000000000000 ) ) ;
#48 = SECURITY_CLASSIFICATION ( '', '', #121 ) ;
#49 = APPROVAL_PERSON_ORGANIZATION ( #114, #40, #12 ) ;
#50 = DIRECTION ( 'NONE',  ( -3.491481338843133355E-15, 1.224646799147353207E-16, -1.000000000000000000 ) ) ;
#51 = PLANE ( 'NONE',  #19 ) ;
#52 = DIRECTION ( 'NONE',  ( -3.491481338843133355E-15, 1.224646799147353207E-16, -1.000000000000000000 ) ) ;
#53 = CLOSED_SHELL ( 'NONE', ( #120, #119, #61, #189 ) ) ;
#54 = DIRECTION ( 'NONE',  ( 3.491481338843133355E-15, -1.224646799147353207E-16, 1.000000000000000000 ) ) ;
#55 = DESIGN_CONTEXT ( 'detailed design', #83, 'design' ) ;
#56 = MECHANICAL_CONTEXT ( 'NONE', #233, 'mechanical' ) ;
#57 = VERTEX_POINT ( 'NONE', #167 ) ;
#58 = AXIS2_PLACEMENT_3D ( 'NONE', #200, #214, #199 ) ;
#59 = ORIENTED_EDGE ( 'NONE', *, *, #150, .F. ) ;
#60 = ORIENTED_EDGE ( 'NONE', *, *, #122, .T. ) ;
#61 = ADVANCED_FACE ( 'NONE', ( #26 ), #66, .T. ) ;
#62 = LOCAL_TIME ( 13, 56, 29.00000000000000000, #190 ) ;
#63 = PRODUCT_DEFINITION ( 'UNKNOWN', '', #155, #55 ) ;
#64 = CARTESIAN_POINT ( 'NONE',  ( 4.189777606611760026E-14, 1.720974350604491157E-32, 12.00000000000000000 ) ) ;
#65 = FACE_BOUND ( 'NONE', #42, .T. ) ;
#66 = PLANE ( 'NONE',  #181 ) ;
#67 = CARTESIAN_POINT ( 'NONE',  ( 2.779219145719134403E-13, -9.748188521212932624E-15, 79.60000000000000853 ) ) ;
#68 = CC_DESIGN_DATE_AND_TIME_ASSIGNMENT ( #183, #220, ( #63 ) ) ;
#69 = PRODUCT_RELATED_PRODUCT_CATEGORY ( 'detail', '', ( #162 ) ) ;
#70 = FACE_BOUND ( 'NONE', #229, .T. ) ;
#71 = CIRCLE ( 'NONE', #194, 1.895000000000013562 ) ;
#72 = CC_DESIGN_SECURITY_CLASSIFICATION ( #48, ( #155 ) ) ;
#73 = VERTEX_POINT ( 'NONE', #185 ) ;
#74 = CARTESIAN_POINT ( 'NONE',  ( 2.793185071074506684E-13, 1.599999999999991207, 80.00000000000000000 ) ) ;
#75 = PERSON_AND_ORGANIZATION ( #37, #27 ) ;
#76 = CC_DESIGN_PERSON_AND_ORGANIZATION_ASSIGNMENT ( #219, #9, ( #63 ) ) ;
#77 = ORIENTED_EDGE ( 'NONE', *, *, #130, .F. ) ;
#78 = CC_DESIGN_APPROVAL ( #21, ( #48 ) ) ;
#79 = ORIENTED_EDGE ( 'NONE', *, *, #13, .F. ) ;
#80 = COORDINATED_UNIVERSAL_TIME_OFFSET ( 1, 0, .AHEAD. ) ;
#81 = ORIENTED_EDGE ( 'NONE', *, *, #163, .F. ) ;
#82 = ORIENTED_EDGE ( 'NONE', *, *, #130, .T. ) ;
#83 = APPLICATION_CONTEXT ( 'configuration controlled 3d designs of mechanical parts and assemblies' ) ;
#84 = CLOSED_SHELL ( 'NONE', ( #24, #125, #195, #171, #96 ) ) ;
#85 = DIRECTION ( 'NONE',  ( -3.491481338843133355E-15, 1.224646799147353207E-16, -1.000000000000000000 ) ) ;
#86 = DIRECTION ( 'NONE',  ( 0.0000000000000000000, 1.000000000000000000, 0.0000000000000000000 ) ) ;
#87 = CARTESIAN_POINT ( 'NONE',  ( 4.368176587252144141E-14, -1.532150098061598204E-15, 12.51095498823285723 ) ) ;
#88 = PLANE ( 'NONE',  #217 ) ;
#89 = FACE_OUTER_BOUND ( 'NONE', #157, .T. ) ;
#90 = CARTESIAN_POINT ( 'NONE',  ( -1.710569414459005214E-46, 1.895000000000013562, 0.0000000000000000000 ) ) ;
#91 = APPROVAL_PERSON_ORGANIZATION ( #75, #198, #112 ) ;
#92 = DIRECTION ( 'NONE',  ( -3.491481338843133355E-15, 1.224646799147353207E-16, -1.000000000000000000 ) ) ;
#93 = MANIFOLD_SOLID_BREP ( 'Corps-Déplacer/Copier1[2]', #53 ) ;
#94 = DIRECTION ( 'NONE',  ( 0.0000000000000000000, 1.000000000000000000, 0.0000000000000000000 ) ) ;
#95 = VERTEX_POINT ( 'NONE', #110 ) ;
#96 = ADVANCED_FACE ( 'NONE', ( #127 ), #51, .F. ) ;
#97 = LOCAL_TIME ( 13, 56, 29.00000000000000000, #175 ) ;
#98 = PERSON_AND_ORGANIZATION_ROLE ( 'design_owner' ) ;
#99 = ORIENTED_EDGE ( 'NONE', *, *, #13, .T. ) ;
#100 = CIRCLE ( 'NONE', #136, 2.295000000000015028 ) ;
#101 = PERSON_AND_ORGANIZATION_ROLE ( 'design_supplier' ) ;
#102 = PERSON_AND_ORGANIZATION ( #37, #27 ) ;
#103 = ORIENTED_EDGE ( 'NONE', *, *, #163, .T. ) ;
#104 = DIRECTION ( 'NONE',  ( -3.491481338843133355E-15, 1.224646799147353207E-16, -1.000000000000000000 ) ) ;
#105 = AXIS2_PLACEMENT_3D ( 'NONE', #161, #54, #177 ) ;
#106 = CARTESIAN_POINT ( 'NONE',  ( 4.189777606611760026E-14, 1.720974350604491157E-32, 12.00000000000000000 ) ) ;
#107 = DIRECTION ( 'NONE',  ( -3.491481338843133355E-15, 1.224646799147353207E-16, -1.000000000000000000 ) ) ;
#108 = CARTESIAN_POINT ( 'NONE',  ( -4.051350294987398009E-31, 1.421022394072120456E-32, -1.160352842192125626E-16 ) ) ;
#109 = DIRECTION ( 'NONE',  ( 3.491481338843133355E-15, -1.224646799147353207E-16, 1.000000000000000000 ) ) ;
#110 = CARTESIAN_POINT ( 'NONE',  ( 4.189777606611760026E-14, 2.295000000000013696, 12.00000000000000000 ) ) ;
#111 = PRODUCT_DEFINITION_SHAPE ( 'NONE', 'NONE',  #63 ) ;
#112 = APPROVAL_ROLE ( '' ) ;
#113 = AXIS2_PLACEMENT_3D ( 'NONE', #87, #85, #147 ) ;
#114 = PERSON_AND_ORGANIZATION ( #37, #27 ) ;
#115 = CC_DESIGN_PERSON_AND_ORGANIZATION_ASSIGNMENT ( #139, #207, ( #155 ) ) ;
#116 = VERTEX_POINT ( 'NONE', #166 ) ;
#117 = AXIS2_PLACEMENT_3D ( 'NONE', #180, #7, #128 ) ;
#118 = ORIENTED_EDGE ( 'NONE', *, *, #150, .T. ) ;
#119 = ADVANCED_FACE ( 'NONE', ( #197 ), #88, .T. ) ;
#120 = ADVANCED_FACE ( 'NONE', ( #236, #237 ), #129, .T. ) ;
#121 = SECURITY_CLASSIFICATION_LEVEL ( 'unclassified' ) ;
#122 = EDGE_CURVE ( 'NONE', #34, #34, #228, .T. ) ;
#123 = PERSON_AND_ORGANIZATION_ROLE ( 'classification_officer' ) ;
#124 = ORIENTED_EDGE ( 'NONE', *, *, #122, .F. ) ;
#125 = ADVANCED_FACE ( 'NONE', ( #70, #160 ), #43, .T. ) ;
#126 = ORIENTED_EDGE ( 'NONE', *, *, #184, .T. ) ;
#127 = FACE_OUTER_BOUND ( 'NONE', #46, .T. ) ;
#128 = DIRECTION ( 'NONE',  ( 0.0000000000000000000, 1.000000000000000000, 0.0000000000000000000 ) ) ;
#129 = CYLINDRICAL_SURFACE ( 'NONE', #212, 2.295000000000015028 ) ;
#130 = EDGE_CURVE ( 'NONE', #10, #10, #148, .T. ) ;
#131 = DIRECTION ( 'NONE',  ( 4.275831445896958607E-31, 1.000000000000000000, 1.224646799147353454E-16 ) ) ;
#132 = CALENDAR_DATE ( 2021, 2, 12 ) ;
#133 = APPLICATION_PROTOCOL_DEFINITION ( 'international standard', 'config_control_design', 1994, #233 ) ;
#134 = APPROVAL_DATE_TIME ( #239, #198 ) ;
#135 = DIRECTION ( 'NONE',  ( 0.0000000000000000000, 0.0000000000000000000, 1.000000000000000000 ) ) ;
#136 = AXIS2_PLACEMENT_3D ( 'NONE', #149, #92, #94 ) ;
#137 = CALENDAR_DATE ( 2021, 2, 12 ) ;
#138 = DATE_TIME_ROLE ( 'classification_date' ) ;
#139 = PERSON_AND_ORGANIZATION ( #37, #27 ) ;
#140 = AXIS2_PLACEMENT_3D ( 'NONE', #33, #135, #151 ) ;
#141 = ADVANCED_BREP_SHAPE_REPRESENTATION ( '321685', ( #174, #93, #140 ), #6 ) ;
#142 = DIRECTION ( 'NONE',  ( -4.275831445896958607E-31, -1.000000000000000000, -1.224646799147353207E-16 ) ) ;
#143 = DIRECTION ( 'NONE',  ( 3.491481338843133355E-15, -1.224646799147353207E-16, 1.000000000000000000 ) ) ;
#144 = AXIS2_PLACEMENT_3D ( 'NONE', #67, #232, #182 ) ;
#145 = CARTESIAN_POINT ( 'NONE',  ( 2.793185071074506684E-13, -9.797174393178826052E-15, 80.00000000000000000 ) ) ;
#146 = FACE_OUTER_BOUND ( 'NONE', #227, .T. ) ;
#147 = DIRECTION ( 'NONE',  ( 0.0000000000000000000, 1.000000000000000000, 0.0000000000000000000 ) ) ;
#148 = CIRCLE ( 'NONE', #113, 1.999999999999992228 ) ;
#149 = CARTESIAN_POINT ( 'NONE',  ( 4.189777606611760026E-14, -1.469576158976823947E-15, 12.00000000000000000 ) ) ;
#150 = EDGE_CURVE ( 'NONE', #116, #116, #238, .T. ) ;
#151 = DIRECTION ( 'NONE',  ( 1.000000000000000000, 0.0000000000000000000, 0.0000000000000000000 ) ) ;
#152 = CALENDAR_DATE ( 2021, 2, 12 ) ;
#153 = COORDINATED_UNIVERSAL_TIME_OFFSET ( 1, 0, .AHEAD. ) ;
#154 = EDGE_LOOP ( 'NONE', ( #193 ) ) ;
#155 = PRODUCT_DEFINITION_FORMATION_WITH_SPECIFIED_SOURCE ( 'ANY', '', #162, .NOT_KNOWN. ) ;
#156 = APPROVAL_STATUS ( 'not_yet_approved' ) ;
#157 = EDGE_LOOP ( 'NONE', ( #103 ) ) ;
#158 = ORIENTED_EDGE ( 'NONE', *, *, #226, .F. ) ;
#159 = DIRECTION ( 'NONE',  ( 4.275831445896958607E-31, 1.000000000000000000, 1.224646799147353207E-16 ) ) ;
#160 = FACE_OUTER_BOUND ( 'NONE', #176, .T. ) ;
#161 = CARTESIAN_POINT ( 'NONE',  ( -8.102700589974796018E-31, 2.842044788144240913E-32, -2.320705684384251252E-16 ) ) ;
#162 = PRODUCT ( '321685', '321685', '', ( #56 ) ) ;
#163 = EDGE_CURVE ( 'NONE', #57, #57, #234, .T. ) ;
#164 = CARTESIAN_POINT ( 'NONE',  ( 2.793185071074506684E-13, 1.199807826129472128E-32, 80.00000000000000000 ) ) ;
#165 = DIRECTION ( 'NONE',  ( -3.491481338843133355E-15, 1.224646799147353207E-16, -1.000000000000000000 ) ) ;
#166 = CARTESIAN_POINT ( 'NONE',  ( 1.396592535537253737E-15, 2.295000000000015028, 0.4000000000000000777 ) ) ;
#167 = CARTESIAN_POINT ( 'NONE',  ( 2.779219145719134403E-13, 1.999999999999991340, 79.60000000000000853 ) ) ;
#168 = COORDINATED_UNIVERSAL_TIME_OFFSET ( 1, 0, .AHEAD. ) ;
#169 = LOCAL_TIME ( 13, 56, 29.00000000000000000, #153 ) ;
#170 = EDGE_LOOP ( 'NONE', ( #16 ) ) ;
#171 = ADVANCED_FACE ( 'NONE', ( #146, #65 ), #36, .T. ) ;
#172 = CONICAL_SURFACE ( 'NONE', #105, 1.895000000000013562, 0.7853981633974498333 ) ;
#173 = DATE_AND_TIME ( #38, #97 ) ;
#174 = MANIFOLD_SOLID_BREP ( 'Corps-Déplacer/Copier1[1]', #84 ) ;
#175 = COORDINATED_UNIVERSAL_TIME_OFFSET ( 1, 0, .AHEAD. ) ;
#176 = EDGE_LOOP ( 'NONE', ( #79 ) ) ;
#177 = DIRECTION ( 'NONE',  ( -4.275831445896957731E-31, -1.000000000000000000, -1.224646799147353454E-16 ) ) ;
#178 = DIRECTION ( 'NONE',  ( -3.491481338843133355E-15, 1.224646799147353207E-16, -1.000000000000000000 ) ) ;
#179 = DIRECTION ( 'NONE',  ( 4.275831445896958607E-31, 1.000000000000000000, 1.224646799147353207E-16 ) ) ;
#180 = CARTESIAN_POINT ( 'NONE',  ( 4.189777606611760026E-14, -1.469576158976823947E-15, 12.00000000000000000 ) ) ;
#181 = AXIS2_PLACEMENT_3D ( 'NONE', #108, #4, #179 ) ;
#182 = DIRECTION ( 'NONE',  ( 0.0000000000000000000, 1.000000000000000000, 0.0000000000000000000 ) ) ;
#183 = DATE_AND_TIME ( #223, #62 ) ;
#184 = EDGE_CURVE ( 'NONE', #241, #241, #71, .T. ) ;
#185 = CARTESIAN_POINT ( 'NONE',  ( 4.189777606611760026E-14, 2.295000000000013696, 12.00000000000000000 ) ) ;
#186 = AXIS2_PLACEMENT_3D ( 'NONE', #47, #107, #86 ) ;
#187 = CC_DESIGN_APPROVAL ( #40, ( #155 ) ) ;
#188 = APPROVAL_STATUS ( 'not_yet_approved' ) ;
#189 = ADVANCED_FACE ( 'NONE', ( #202, #8 ), #172, .T. ) ;
#190 = COORDINATED_UNIVERSAL_TIME_OFFSET ( 1, 0, .AHEAD. ) ;
#191 = AXIS2_PLACEMENT_3D ( 'NONE', #17, #50, #28 ) ;
#192 = PERSON_AND_ORGANIZATION ( #37, #27 ) ;
#193 = ORIENTED_EDGE ( 'NONE', *, *, #226, .T. ) ;
#194 = AXIS2_PLACEMENT_3D ( 'NONE', #215, #52, #131 ) ;
#195 = ADVANCED_FACE ( 'NONE', ( #5, #89 ), #213, .T. ) ;
#196 = CC_DESIGN_PERSON_AND_ORGANIZATION_ASSIGNMENT ( #205, #98, ( #162 ) ) ;
#197 = FACE_OUTER_BOUND ( 'NONE', #1, .T. ) ;
#198 = APPROVAL ( #30, 'UNSPECIFIED' ) ;
#199 = DIRECTION ( 'NONE',  ( 4.195925804765192409E-31, 1.000000000000000000, 1.181048118175923068E-16 ) ) ;
#200 = CARTESIAN_POINT ( 'NONE',  ( 1.396592535537252750E-15, -4.898587196589410610E-17, 0.3999999999999998002 ) ) ;
#201 = DIRECTION ( 'NONE',  ( -3.491481338843133355E-15, 1.224646799147353207E-16, -1.000000000000000000 ) ) ;
#202 = FACE_OUTER_BOUND ( 'NONE', #18, .T. ) ;
#203 = LOCAL_TIME ( 13, 56, 29.00000000000000000, #168 ) ;
#204 = DATE_AND_TIME ( #132, #203 ) ;
#205 = PERSON_AND_ORGANIZATION ( #37, #27 ) ;
#206 =( LENGTH_UNIT ( ) NAMED_UNIT ( * ) SI_UNIT ( .MILLI., .METRE. ) );
#207 = PERSON_AND_ORGANIZATION_ROLE ( 'creator' ) ;
#208 = DATE_AND_TIME ( #137, #218 ) ;
#209 = EDGE_LOOP ( 'NONE', ( #77 ) ) ;
#210 = AXIS2_PLACEMENT_3D ( 'NONE', #64, #143, #142 ) ;
#211 = DIRECTION ( 'NONE',  ( -4.275831445896958607E-31, -1.000000000000000000, -1.224646799147353207E-16 ) ) ;
#212 = AXIS2_PLACEMENT_3D ( 'NONE', #22, #201, #25 ) ;
#213 = CYLINDRICAL_SURFACE ( 'NONE', #242, 1.999999999999996669 ) ;
#214 = DIRECTION ( 'NONE',  ( -3.491481338843133355E-15, 1.224646799147353207E-16, -1.000000000000000000 ) ) ;
#215 = CARTESIAN_POINT ( 'NONE',  ( -8.102700589974796018E-31, 2.842044788144240913E-32, -2.320705684384251252E-16 ) ) ;
#216 = DIRECTION ( 'NONE',  ( 0.0000000000000000000, 1.000000000000000000, 0.0000000000000000000 ) ) ;
#217 = AXIS2_PLACEMENT_3D ( 'NONE', #106, #109, #211 ) ;
#218 = LOCAL_TIME ( 13, 56, 29.00000000000000000, #80 ) ;
#219 = PERSON_AND_ORGANIZATION ( #37, #27 ) ;
#220 = DATE_TIME_ROLE ( 'creation_date' ) ;
#221 = CIRCLE ( 'NONE', #191, 2.295000000000015028 ) ;
#222 = CARTESIAN_POINT ( 'NONE',  ( 4.368176587252144141E-14, 1.999999999999990452, 12.51095498823285723 ) ) ;
#223 = CALENDAR_DATE ( 2021, 2, 12 ) ;
#224 = EDGE_LOOP ( 'NONE', ( #99 ) ) ;
#225 = PERSON_AND_ORGANIZATION ( #37, #27 ) ;
#226 = EDGE_CURVE ( 'NONE', #95, #95, #100, .T. ) ;
#227 = EDGE_LOOP ( 'NONE', ( #81 ) ) ;
#228 = CIRCLE ( 'NONE', #186, 1.600000000000000977 ) ;
#229 = EDGE_LOOP ( 'NONE', ( #82 ) ) ;
#230 = CC_DESIGN_DATE_AND_TIME_ASSIGNMENT ( #173, #138, ( #48 ) ) ;
#231 = PLANE ( 'NONE',  #210 ) ;
#232 = DIRECTION ( 'NONE',  ( -3.491481338843133355E-15, 1.224646799147353207E-16, -1.000000000000000000 ) ) ;
#233 = APPLICATION_CONTEXT ( 'configuration controlled 3d designs of mechanical parts and assemblies' ) ;
#234 = CIRCLE ( 'NONE', #144, 2.000000000000000888 ) ;
#235 = CARTESIAN_POINT ( 'NONE',  ( 0.0000000000000000000, 0.0000000000000000000, 0.0000000000000000000 ) ) ;
#236 = FACE_OUTER_BOUND ( 'NONE', #154, .T. ) ;
#237 = FACE_OUTER_BOUND ( 'NONE', #243, .T. ) ;
#238 = CIRCLE ( 'NONE', #58, 2.295000000000015028 ) ;
#239 = DATE_AND_TIME ( #152, #169 ) ;
#240 =( NAMED_UNIT ( * ) PLANE_ANGLE_UNIT ( ) SI_UNIT ( $, .RADIAN. ) );
#241 = VERTEX_POINT ( 'NONE', #90 ) ;
#242 = AXIS2_PLACEMENT_3D ( 'NONE', #235, #165, #3 ) ;
#243 = EDGE_LOOP ( 'NONE', ( #59 ) ) ;
ENDSEC;
END-ISO-10303-21;
