ISO-10303-21;
HEADER;
FILE_DESCRIPTION (( 'STEP AP203' ),
    '1' );
FILE_NAME ('321684.step',
    '2021-12-02T12:56:28',
    ( '' ),
    ( '' ),
    'SwSTEP 2.0',
    'SolidWorks 2019',
    '' );
FILE_SCHEMA (( 'CONFIG_CONTROL_DESIGN' ));
ENDSEC;

DATA;
#1 =( GEOMETRIC_REPRESENTATION_CONTEXT ( 3 ) GLOBAL_UNCERTAINTY_ASSIGNED_CONTEXT ( ( #150 ) ) GLOBAL_UNIT_ASSIGNED_CONTEXT ( ( #29, #165, #164 ) ) REPRESENTATION_CONTEXT ( 'NONE', 'WORKASPACE' ) );
#2 = EDGE_LOOP ( 'NONE', ( #169 ) ) ;
#3 = ORIENTED_EDGE ( 'NONE', *, *, #166, .F. ) ;
#4 = EDGE_LOOP ( 'NONE', ( #110 ) ) ;
#5 = CONICAL_SURFACE ( 'NONE', #132, 1.600000000000000977, 0.7853981633974512766 ) ;
#6 = DIRECTION ( 'NONE',  ( 4.275831445896958607E-31, 1.000000000000000000, 1.224646799147353207E-16 ) ) ;
#7 = DIRECTION ( 'NONE',  ( 0.0000000000000000000, 1.000000000000000000, 0.0000000000000000000 ) ) ;
#8 = CC_DESIGN_PERSON_AND_ORGANIZATION_ASSIGNMENT ( #18, #229, ( #115 ) ) ;
#9 = DIRECTION ( 'NONE',  ( 0.0000000000000000000, 1.000000000000000000, 0.0000000000000000000 ) ) ;
#10 = CIRCLE ( 'NONE', #122, 2.290000000000015135 ) ;
#11 = CC_DESIGN_APPROVAL ( #136, ( #207 ) ) ;
#12 = DIRECTION ( 'NONE',  ( -3.491481338843133355E-15, 1.224646799147353207E-16, -1.000000000000000000 ) ) ;
#13 = APPLICATION_PROTOCOL_DEFINITION ( 'international standard', 'config_control_design', 1994, #62 ) ;
#14 = CARTESIAN_POINT ( 'NONE',  ( 4.189777606611760026E-14, 2.290000000000013802, 12.00000000000000000 ) ) ;
#15 = AXIS2_PLACEMENT_3D ( 'NONE', #177, #174, #155 ) ;
#16 = PERSON ( 'UNSPECIFIED', 'UNSPECIFIED', 'UNSPECIFIED', ('UNSPECIFIED'), ('UNSPECIFIED'), ('UNSPECIFIED') ) ;
#17 = APPROVAL ( #126, 'UNSPECIFIED' ) ;
#18 = PERSON_AND_ORGANIZATION ( #16, #43 ) ;
#19 = EDGE_CURVE ( 'NONE', #240, #240, #74, .T. ) ;
#20 = CALENDAR_DATE ( 2021, 2, 12 ) ;
#21 = CONICAL_SURFACE ( 'NONE', #225, 1.890000000000013891, 0.7853981633974497223 ) ;
#22 = CC_DESIGN_APPROVAL ( #17, ( #107 ) ) ;
#23 = DIRECTION ( 'NONE',  ( 0.0000000000000000000, 1.000000000000000000, 0.0000000000000000000 ) ) ;
#24 = CARTESIAN_POINT ( 'NONE',  ( 4.365152875715866006E-14, -1.531089522822872962E-15, 12.50229473419501325 ) ) ;
#25 = DIRECTION ( 'NONE',  ( 4.275831445896958607E-31, 1.000000000000000000, 1.224646799147353207E-16 ) ) ;
#26 = CARTESIAN_POINT ( 'NONE',  ( 4.189777606611760026E-14, -1.469576158976823947E-15, 12.00000000000000000 ) ) ;
#27 = CIRCLE ( 'NONE', #242, 1.999999999999992228 ) ;
#28 = DIRECTION ( 'NONE',  ( 0.0000000000000000000, 1.000000000000000000, 0.0000000000000000000 ) ) ;
#29 =( LENGTH_UNIT ( ) NAMED_UNIT ( * ) SI_UNIT ( .MILLI., .METRE. ) );
#30 = CALENDAR_DATE ( 2021, 2, 12 ) ;
#31 = DATE_AND_TIME ( #30, #198 ) ;
#32 = APPROVAL_PERSON_ORGANIZATION ( #204, #136, #47 ) ;
#33 = VERTEX_POINT ( 'NONE', #223 ) ;
#34 = COORDINATED_UNIVERSAL_TIME_OFFSET ( 1, 0, .AHEAD. ) ;
#35 = EDGE_LOOP ( 'NONE', ( #114 ) ) ;
#36 = APPROVAL_PERSON_ORGANIZATION ( #53, #17, #48 ) ;
#37 = COORDINATED_UNIVERSAL_TIME_OFFSET ( 1, 0, .AHEAD. ) ;
#38 = DATE_AND_TIME ( #20, #75 ) ;
#39 = AXIS2_PLACEMENT_3D ( 'NONE', #92, #44, #119 ) ;
#40 = APPLICATION_CONTEXT ( 'configuration controlled 3d designs of mechanical parts and assemblies' ) ;
#41 = DIRECTION ( 'NONE',  ( -3.491481338843133355E-15, 1.224646799147353207E-16, -1.000000000000000000 ) ) ;
#42 = DIRECTION ( 'NONE',  ( -4.275831445896958607E-31, -1.000000000000000000, -1.224646799147353207E-16 ) ) ;
#43 = ORGANIZATION ( 'UNSPECIFIED', 'UNSPECIFIED', '' ) ;
#44 = DIRECTION ( 'NONE',  ( -3.491481338843133355E-15, 1.224646799147353207E-16, -1.000000000000000000 ) ) ;
#45 = CARTESIAN_POINT ( 'NONE',  ( 2.793185071074506684E-13, -9.797174393178826052E-15, 80.00000000000000000 ) ) ;
#46 = FACE_OUTER_BOUND ( 'NONE', #2, .T. ) ;
#47 = APPROVAL_ROLE ( '' ) ;
#48 = APPROVAL_ROLE ( '' ) ;
#49 = EDGE_CURVE ( 'NONE', #69, #69, #241, .T. ) ;
#50 = PERSON_AND_ORGANIZATION ( #16, #43 ) ;
#51 = AXIS2_PLACEMENT_3D ( 'NONE', #99, #12, #25 ) ;
#52 = ADVANCED_FACE ( 'NONE', ( #216 ), #157, .F. ) ;
#53 = PERSON_AND_ORGANIZATION ( #16, #43 ) ;
#54 = EDGE_LOOP ( 'NONE', ( #72 ) ) ;
#55 = DATE_TIME_ROLE ( 'classification_date' ) ;
#56 = EDGE_LOOP ( 'NONE', ( #3 ) ) ;
#57 = PERSON_AND_ORGANIZATION ( #16, #43 ) ;
#58 = ADVANCED_FACE ( 'NONE', ( #79, #175 ), #21, .T. ) ;
#59 = ORIENTED_EDGE ( 'NONE', *, *, #186, .F. ) ;
#60 = AXIS2_PLACEMENT_3D ( 'NONE', #200, #154, #6 ) ;
#61 = CARTESIAN_POINT ( 'NONE',  ( -8.081321432745311304E-31, 2.834545989230931570E-32, -2.314582450388514377E-16 ) ) ;
#62 = APPLICATION_CONTEXT ( 'configuration controlled 3d designs of mechanical parts and assemblies' ) ;
#63 = FACE_BOUND ( 'NONE', #54, .T. ) ;
#64 = ADVANCED_FACE ( 'NONE', ( #201, #214 ), #238, .T. ) ;
#65 = DIRECTION ( 'NONE',  ( -3.491481338843133355E-15, 1.224646799147353207E-16, -1.000000000000000000 ) ) ;
#66 = CARTESIAN_POINT ( 'NONE',  ( 0.0000000000000000000, 0.0000000000000000000, 0.0000000000000000000 ) ) ;
#67 = DIRECTION ( 'NONE',  ( 0.0000000000000000000, 1.000000000000000000, 0.0000000000000000000 ) ) ;
#68 = DATE_AND_TIME ( #163, #184 ) ;
#69 = VERTEX_POINT ( 'NONE', #87 ) ;
#70 = CARTESIAN_POINT ( 'NONE',  ( 4.189777606611760026E-14, 1.717224951147836212E-32, 12.00000000000000000 ) ) ;
#71 = PRODUCT ( '321684', '321684', '', ( #224 ) ) ;
#72 = ORIENTED_EDGE ( 'NONE', *, *, #166, .T. ) ;
#73 = PERSON_AND_ORGANIZATION_ROLE ( 'creator' ) ;
#74 = CIRCLE ( 'NONE', #205, 2.290000000000015135 ) ;
#75 = LOCAL_TIME ( 13, 56, 28.00000000000000000, #90 ) ;
#76 = ORIENTED_EDGE ( 'NONE', *, *, #82, .T. ) ;
#77 = ORIENTED_EDGE ( 'NONE', *, *, #82, .F. ) ;
#78 = DIRECTION ( 'NONE',  ( 4.205087214819264448E-31, 1.000000000000000000, 1.183626825857529764E-16 ) ) ;
#79 = FACE_OUTER_BOUND ( 'NONE', #35, .T. ) ;
#80 = FACE_OUTER_BOUND ( 'NONE', #149, .T. ) ;
#81 = FACE_OUTER_BOUND ( 'NONE', #56, .T. ) ;
#82 = EDGE_CURVE ( 'NONE', #143, #143, #127, .T. ) ;
#83 = CARTESIAN_POINT ( 'NONE',  ( 0.0000000000000000000, 0.0000000000000000000, 0.0000000000000000000 ) ) ;
#84 = DATE_AND_TIME ( #182, #85 ) ;
#85 = LOCAL_TIME ( 13, 56, 28.00000000000000000, #125 ) ;
#86 = DIRECTION ( 'NONE',  ( -4.275831445896958607E-31, -1.000000000000000000, -1.224646799147353207E-16 ) ) ;
#87 = CARTESIAN_POINT ( 'NONE',  ( 4.189777606611760026E-14, 2.290000000000013802, 12.00000000000000000 ) ) ;
#88 = DIRECTION ( 'NONE',  ( 0.0000000000000000000, 0.0000000000000000000, 1.000000000000000000 ) ) ;
#89 = EDGE_LOOP ( 'NONE', ( #209 ) ) ;
#90 = COORDINATED_UNIVERSAL_TIME_OFFSET ( 1, 0, .AHEAD. ) ;
#91 = EDGE_LOOP ( 'NONE', ( #77 ) ) ;
#92 = CARTESIAN_POINT ( 'NONE',  ( -4.040660716372655652E-31, 1.417272994615465785E-32, -1.157291225194257188E-16 ) ) ;
#93 = CC_DESIGN_SECURITY_CLASSIFICATION ( #115, ( #207 ) ) ;
#94 = CARTESIAN_POINT ( 'NONE',  ( 2.779219145719134403E-13, -9.748188521212932624E-15, 79.60000000000000853 ) ) ;
#95 = PLANE ( 'NONE',  #15 ) ;
#96 = EDGE_CURVE ( 'NONE', #220, #220, #158, .T. ) ;
#97 = DIRECTION ( 'NONE',  ( -3.491481338843133355E-15, 1.224646799147353207E-16, -1.000000000000000000 ) ) ;
#98 = AXIS2_PLACEMENT_3D ( 'NONE', #70, #161, #86 ) ;
#99 = CARTESIAN_POINT ( 'NONE',  ( -8.081321432745311304E-31, 2.834545989230931570E-32, -2.314582450388514377E-16 ) ) ;
#100 = PERSON_AND_ORGANIZATION_ROLE ( 'creator' ) ;
#101 = CC_DESIGN_PERSON_AND_ORGANIZATION_ASSIGNMENT ( #50, #123, ( #71 ) ) ;
#102 = CC_DESIGN_DATE_AND_TIME_ASSIGNMENT ( #38, #55, ( #115 ) ) ;
#103 = EDGE_CURVE ( 'NONE', #183, #183, #10, .T. ) ;
#104 = APPROVAL_DATE_TIME ( #31, #136 ) ;
#105 = CC_DESIGN_PERSON_AND_ORGANIZATION_ASSIGNMENT ( #147, #171, ( #207 ) ) ;
#106 = CARTESIAN_POINT ( 'NONE',  ( 1.396592535537254131E-15, 2.290000000000015135, 0.4000000000000001887 ) ) ;
#107 = PRODUCT_DEFINITION ( 'UNKNOWN', '', #207, #178 ) ;
#108 = CARTESIAN_POINT ( 'NONE',  ( 2.779219145719134403E-13, 1.999999999999991340, 79.60000000000000853 ) ) ;
#109 = AXIS2_PLACEMENT_3D ( 'NONE', #135, #117, #199 ) ;
#110 = ORIENTED_EDGE ( 'NONE', *, *, #96, .F. ) ;
#111 = EDGE_LOOP ( 'NONE', ( #76 ) ) ;
#112 = PRODUCT_RELATED_PRODUCT_CATEGORY ( 'detail', '', ( #71 ) ) ;
#113 = AXIS2_PLACEMENT_3D ( 'NONE', #94, #134, #23 ) ;
#114 = ORIENTED_EDGE ( 'NONE', *, *, #103, .T. ) ;
#115 = SECURITY_CLASSIFICATION ( '', '', #191 ) ;
#116 = DIRECTION ( 'NONE',  ( 3.491481338843133355E-15, -1.224646799147353207E-16, 1.000000000000000000 ) ) ;
#117 = DIRECTION ( 'NONE',  ( -3.491481338843133355E-15, 1.224646799147353207E-16, -1.000000000000000000 ) ) ;
#118 = CLOSED_SHELL ( 'NONE', ( #64, #217, #130, #58 ) ) ;
#119 = DIRECTION ( 'NONE',  ( 4.275831445896958607E-31, 1.000000000000000000, 1.224646799147353207E-16 ) ) ;
#120 = DIRECTION ( 'NONE',  ( -3.491481338843133355E-15, 1.224646799147353207E-16, -1.000000000000000000 ) ) ;
#121 = DIRECTION ( 'NONE',  ( 4.275831445896958607E-31, 1.000000000000000000, 1.224646799147353207E-16 ) ) ;
#122 = AXIS2_PLACEMENT_3D ( 'NONE', #213, #41, #78 ) ;
#123 = PERSON_AND_ORGANIZATION_ROLE ( 'design_owner' ) ;
#124 = DATE_TIME_ROLE ( 'creation_date' ) ;
#125 = COORDINATED_UNIVERSAL_TIME_OFFSET ( 1, 0, .AHEAD. ) ;
#126 = APPROVAL_STATUS ( 'not_yet_approved' ) ;
#127 = CIRCLE ( 'NONE', #113, 2.000000000000000888 ) ;
#128 = CALENDAR_DATE ( 2021, 2, 12 ) ;
#129 = EDGE_LOOP ( 'NONE', ( #226 ) ) ;
#130 = ADVANCED_FACE ( 'NONE', ( #234 ), #139, .T. ) ;
#131 = APPROVAL_DATE_TIME ( #168, #176 ) ;
#132 = AXIS2_PLACEMENT_3D ( 'NONE', #179, #97, #7 ) ;
#133 = APPROVAL_PERSON_ORGANIZATION ( #194, #176, #208 ) ;
#134 = DIRECTION ( 'NONE',  ( -3.491481338843133355E-15, 1.224646799147353207E-16, -1.000000000000000000 ) ) ;
#135 = CARTESIAN_POINT ( 'NONE',  ( 4.189777606611760026E-14, -1.469576158976823947E-15, 12.00000000000000000 ) ) ;
#136 = APPROVAL ( #162, 'UNSPECIFIED' ) ;
#137 = DIRECTION ( 'NONE',  ( -3.491481338843133355E-15, 1.224646799147353207E-16, -1.000000000000000000 ) ) ;
#138 = DIRECTION ( 'NONE',  ( -3.491481338843133355E-15, 1.224646799147353207E-16, -1.000000000000000000 ) ) ;
#139 = PLANE ( 'NONE',  #39 ) ;
#140 = APPROVAL_DATE_TIME ( #68, #17 ) ;
#141 = AXIS2_PLACEMENT_3D ( 'NONE', #45, #120, #67 ) ;
#142 = ADVANCED_FACE ( 'NONE', ( #235, #219 ), #5, .T. ) ;
#143 = VERTEX_POINT ( 'NONE', #108 ) ;
#144 = PERSON_AND_ORGANIZATION ( #16, #43 ) ;
#145 = CARTESIAN_POINT ( 'NONE',  ( 0.0000000000000000000, 0.0000000000000000000, 0.0000000000000000000 ) ) ;
#146 = ADVANCED_FACE ( 'NONE', ( #156 ), #95, .F. ) ;
#147 = PERSON_AND_ORGANIZATION ( #16, #43 ) ;
#148 = CC_DESIGN_PERSON_AND_ORGANIZATION_ASSIGNMENT ( #57, #73, ( #207 ) ) ;
#149 = EDGE_LOOP ( 'NONE', ( #190 ) ) ;
#150 = UNCERTAINTY_MEASURE_WITH_UNIT (LENGTH_MEASURE( 1.000000000000000082E-05 ), #29, 'distance_accuracy_value', 'NONE');
#151 = ADVANCED_FACE ( 'NONE', ( #63, #80 ), #188, .T. ) ;
#152 = ORIENTED_EDGE ( 'NONE', *, *, #19, .T. ) ;
#153 = CLOSED_SHELL ( 'NONE', ( #146, #151, #180, #142, #52 ) ) ;
#154 = DIRECTION ( 'NONE',  ( -3.491481338843133355E-15, 1.224646799147353207E-16, -1.000000000000000000 ) ) ;
#155 = DIRECTION ( 'NONE',  ( -4.275831445896958607E-31, -1.000000000000000000, -1.224646799147353207E-16 ) ) ;
#156 = FACE_OUTER_BOUND ( 'NONE', #89, .T. ) ;
#157 = PLANE ( 'NONE',  #60 ) ;
#158 = CIRCLE ( 'NONE', #51, 1.890000000000013891 ) ;
#159 = CC_DESIGN_APPROVAL ( #176, ( #115 ) ) ;
#160 = FACE_OUTER_BOUND ( 'NONE', #111, .T. ) ;
#161 = DIRECTION ( 'NONE',  ( 3.491481338843133355E-15, -1.224646799147353207E-16, 1.000000000000000000 ) ) ;
#162 = APPROVAL_STATUS ( 'not_yet_approved' ) ;
#163 = CALENDAR_DATE ( 2021, 2, 12 ) ;
#164 =( NAMED_UNIT ( * ) SI_UNIT ( $, .STERADIAN. ) SOLID_ANGLE_UNIT ( ) );
#165 =( NAMED_UNIT ( * ) PLANE_ANGLE_UNIT ( ) SI_UNIT ( $, .RADIAN. ) );
#166 = EDGE_CURVE ( 'NONE', #33, #33, #27, .T. ) ;
#167 = APPROVAL_STATUS ( 'not_yet_approved' ) ;
#168 = DATE_AND_TIME ( #128, #195 ) ;
#169 = ORIENTED_EDGE ( 'NONE', *, *, #19, .F. ) ;
#170 = ORIENTED_EDGE ( 'NONE', *, *, #103, .F. ) ;
#171 = PERSON_AND_ORGANIZATION_ROLE ( 'design_supplier' ) ;
#172 = CC_DESIGN_DATE_AND_TIME_ASSIGNMENT ( #84, #124, ( #107 ) ) ;
#173 = AXIS2_PLACEMENT_3D ( 'NONE', #145, #88, #243 ) ;
#174 = DIRECTION ( 'NONE',  ( 3.491481338843133355E-15, -1.224646799147353207E-16, 1.000000000000000000 ) ) ;
#175 = FACE_BOUND ( 'NONE', #4, .T. ) ;
#176 = APPROVAL ( #167, 'UNSPECIFIED' ) ;
#177 = CARTESIAN_POINT ( 'NONE',  ( 4.189777606611760026E-14, 1.717224951147836212E-32, 12.00000000000000000 ) ) ;
#178 = DESIGN_CONTEXT ( 'detailed design', #40, 'design' ) ;
#179 = CARTESIAN_POINT ( 'NONE',  ( 2.793185071074506684E-13, -9.797174393178826052E-15, 80.00000000000000000 ) ) ;
#180 = ADVANCED_FACE ( 'NONE', ( #81, #160 ), #237, .T. ) ;
#181 = DIRECTION ( 'NONE',  ( -3.491481338843133355E-15, 1.224646799147353207E-16, -1.000000000000000000 ) ) ;
#182 = CALENDAR_DATE ( 2021, 2, 12 ) ;
#183 = VERTEX_POINT ( 'NONE', #106 ) ;
#184 = LOCAL_TIME ( 13, 56, 28.00000000000000000, #34 ) ;
#185 = VERTEX_POINT ( 'NONE', #206 ) ;
#186 = EDGE_CURVE ( 'NONE', #185, #185, #236, .T. ) ;
#187 = CARTESIAN_POINT ( 'NONE',  ( 0.0000000000000000000, 1.890000000000013891, 0.0000000000000000000 ) ) ;
#188 = CONICAL_SURFACE ( 'NONE', #109, 2.290000000000015135, 0.5235987755983002589 ) ;
#189 = EDGE_LOOP ( 'NONE', ( #232 ) ) ;
#190 = ORIENTED_EDGE ( 'NONE', *, *, #49, .F. ) ;
#191 = SECURITY_CLASSIFICATION_LEVEL ( 'unclassified' ) ;
#192 = EDGE_LOOP ( 'NONE', ( #170 ) ) ;
#193 = AXIS2_PLACEMENT_3D ( 'NONE', #26, #197, #28 ) ;
#194 = PERSON_AND_ORGANIZATION ( #16, #43 ) ;
#195 = LOCAL_TIME ( 13, 56, 28.00000000000000000, #37 ) ;
#196 = ADVANCED_BREP_SHAPE_REPRESENTATION ( '321684', ( #231, #228, #173 ), #1 ) ;
#197 = DIRECTION ( 'NONE',  ( -3.491481338843133355E-15, 1.224646799147353207E-16, -1.000000000000000000 ) ) ;
#198 = LOCAL_TIME ( 13, 56, 28.00000000000000000, #203 ) ;
#199 = DIRECTION ( 'NONE',  ( 0.0000000000000000000, 1.000000000000000000, 0.0000000000000000000 ) ) ;
#200 = CARTESIAN_POINT ( 'NONE',  ( 2.793185071074506684E-13, 1.199807826129472128E-32, 80.00000000000000000 ) ) ;
#201 = FACE_OUTER_BOUND ( 'NONE', #230, .T. ) ;
#202 = PLANE ( 'NONE',  #98 ) ;
#203 = COORDINATED_UNIVERSAL_TIME_OFFSET ( 1, 0, .AHEAD. ) ;
#204 = PERSON_AND_ORGANIZATION ( #16, #43 ) ;
#205 = AXIS2_PLACEMENT_3D ( 'NONE', #211, #137, #233 ) ;
#206 = CARTESIAN_POINT ( 'NONE',  ( 2.793185071074506684E-13, 1.599999999999991207, 80.00000000000000000 ) ) ;
#207 = PRODUCT_DEFINITION_FORMATION_WITH_SPECIFIED_SOURCE ( 'ANY', '', #71, .NOT_KNOWN. ) ;
#208 = APPROVAL_ROLE ( '' ) ;
#209 = ORIENTED_EDGE ( 'NONE', *, *, #49, .T. ) ;
#210 = SHAPE_DEFINITION_REPRESENTATION ( #222, #196 ) ;
#211 = CARTESIAN_POINT ( 'NONE',  ( 4.189777606611760026E-14, -1.469576158976823947E-15, 12.00000000000000000 ) ) ;
#212 = AXIS2_PLACEMENT_3D ( 'NONE', #66, #138, #218 ) ;
#213 = CARTESIAN_POINT ( 'NONE',  ( 1.396592535537253145E-15, -4.898587196589411843E-17, 0.3999999999999999112 ) ) ;
#214 = FACE_OUTER_BOUND ( 'NONE', #192, .T. ) ;
#215 = AXIS2_PLACEMENT_3D ( 'NONE', #83, #65, #121 ) ;
#216 = FACE_OUTER_BOUND ( 'NONE', #227, .T. ) ;
#217 = ADVANCED_FACE ( 'NONE', ( #46 ), #202, .T. ) ;
#218 = DIRECTION ( 'NONE',  ( 4.275831445896958607E-31, 1.000000000000000000, 1.224646799147353207E-16 ) ) ;
#219 = FACE_BOUND ( 'NONE', #189, .T. ) ;
#220 = VERTEX_POINT ( 'NONE', #187 ) ;
#221 = CC_DESIGN_PERSON_AND_ORGANIZATION_ASSIGNMENT ( #144, #100, ( #107 ) ) ;
#222 = PRODUCT_DEFINITION_SHAPE ( 'NONE', 'NONE',  #107 ) ;
#223 = CARTESIAN_POINT ( 'NONE',  ( 4.365152875715866006E-14, 1.999999999999990452, 12.50229473419501325 ) ) ;
#224 = MECHANICAL_CONTEXT ( 'NONE', #62, 'mechanical' ) ;
#225 = AXIS2_PLACEMENT_3D ( 'NONE', #61, #116, #42 ) ;
#226 = ORIENTED_EDGE ( 'NONE', *, *, #96, .T. ) ;
#227 = EDGE_LOOP ( 'NONE', ( #59 ) ) ;
#228 = MANIFOLD_SOLID_BREP ( 'Corps-Déplacer/Copier1[2]', #118 ) ;
#229 = PERSON_AND_ORGANIZATION_ROLE ( 'classification_officer' ) ;
#230 = EDGE_LOOP ( 'NONE', ( #152 ) ) ;
#231 = MANIFOLD_SOLID_BREP ( 'Corps-Déplacer/Copier1[1]', #153 ) ;
#232 = ORIENTED_EDGE ( 'NONE', *, *, #186, .T. ) ;
#233 = DIRECTION ( 'NONE',  ( 0.0000000000000000000, 1.000000000000000000, 0.0000000000000000000 ) ) ;
#234 = FACE_OUTER_BOUND ( 'NONE', #129, .T. ) ;
#235 = FACE_OUTER_BOUND ( 'NONE', #91, .T. ) ;
#236 = CIRCLE ( 'NONE', #141, 1.600000000000000977 ) ;
#237 = CYLINDRICAL_SURFACE ( 'NONE', #212, 1.999999999999996669 ) ;
#238 = CYLINDRICAL_SURFACE ( 'NONE', #215, 2.290000000000015135 ) ;
#239 = APPLICATION_PROTOCOL_DEFINITION ( 'international standard', 'config_control_design', 1994, #40 ) ;
#240 = VERTEX_POINT ( 'NONE', #14 ) ;
#241 = CIRCLE ( 'NONE', #193, 2.290000000000015135 ) ;
#242 = AXIS2_PLACEMENT_3D ( 'NONE', #24, #181, #9 ) ;
#243 = DIRECTION ( 'NONE',  ( 1.000000000000000000, 0.0000000000000000000, 0.0000000000000000000 ) ) ;
ENDSEC;
END-ISO-10303-21;
