ISO-10303-21;
HEADER;
FILE_DESCRIPTION (( 'STEP AP203' ),
    '1' );
FILE_NAME ('321683.step',
    '2021-12-02T12:56:27',
    ( '' ),
    ( '' ),
    'SwSTEP 2.0',
    'SolidWorks 2019',
    '' );
FILE_SCHEMA (( 'CONFIG_CONTROL_DESIGN' ));
ENDSEC;

DATA;
#1 = FACE_BOUND ( 'NONE', #220, .T. ) ;
#2 = EDGE_LOOP ( 'NONE', ( #152 ) ) ;
#3 = ORIENTED_EDGE ( 'NONE', *, *, #68, .T. ) ;
#4 = CIRCLE ( 'NONE', #142, 1.999999999999992228 ) ;
#5 = DIRECTION ( 'NONE',  ( -3.491481338843133355E-15, 1.224646799147353207E-16, -1.000000000000000000 ) ) ;
#6 = FACE_OUTER_BOUND ( 'NONE', #78, .T. ) ;
#7 = AXIS2_PLACEMENT_3D ( 'NONE', #119, #87, #200 ) ;
#8 = AXIS2_PLACEMENT_3D ( 'NONE', #109, #146, #211 ) ;
#9 = CARTESIAN_POINT ( 'NONE',  ( 4.189777606611760026E-14, 1.713475551691181540E-32, 12.00000000000000000 ) ) ;
#10 = DATE_AND_TIME ( #107, #154 ) ;
#11 = PERSON_AND_ORGANIZATION ( #25, #202 ) ;
#12 = APPROVAL_PERSON_ORGANIZATION ( #188, #228, #171 ) ;
#13 = APPLICATION_PROTOCOL_DEFINITION ( 'international standard', 'config_control_design', 1994, #212 ) ;
#14 = CALENDAR_DATE ( 2021, 2, 12 ) ;
#15 = FACE_OUTER_BOUND ( 'NONE', #74, .T. ) ;
#16 = APPROVAL_STATUS ( 'not_yet_approved' ) ;
#17 = LOCAL_TIME ( 13, 56, 27.00000000000000000, #240 ) ;
#18 = DIRECTION ( 'NONE',  ( -3.491481338843133355E-15, 1.224646799147353207E-16, -1.000000000000000000 ) ) ;
#19 = CARTESIAN_POINT ( 'NONE',  ( 4.189777606611760026E-14, -1.469576158976823947E-15, 12.00000000000000000 ) ) ;
#20 = EDGE_LOOP ( 'NONE', ( #187 ) ) ;
#21 = DIRECTION ( 'NONE',  ( -3.491481338843133355E-15, 1.224646799147353207E-16, -1.000000000000000000 ) ) ;
#22 = APPROVAL ( #123, 'UNSPECIFIED' ) ;
#23 = AXIS2_PLACEMENT_3D ( 'NONE', #77, #153, #194 ) ;
#24 = CARTESIAN_POINT ( 'NONE',  ( 4.362129164179588501E-14, -1.530028947584148313E-15, 12.49363448015716926 ) ) ;
#25 = PERSON ( 'UNSPECIFIED', 'UNSPECIFIED', 'UNSPECIFIED', ('UNSPECIFIED'), ('UNSPECIFIED'), ('UNSPECIFIED') ) ;
#26 = FACE_BOUND ( 'NONE', #241, .T. ) ;
#27 = DIRECTION ( 'NONE',  ( 0.0000000000000000000, 1.000000000000000000, 0.0000000000000000000 ) ) ;
#28 = CIRCLE ( 'NONE', #31, 2.285000000000014797 ) ;
#29 = CARTESIAN_POINT ( 'NONE',  ( 4.189777606611760026E-14, 2.285000000000013465, 12.00000000000000000 ) ) ;
#30 = DIRECTION ( 'NONE',  ( 1.000000000000000000, 0.0000000000000000000, 0.0000000000000000000 ) ) ;
#31 = AXIS2_PLACEMENT_3D ( 'NONE', #35, #174, #229 ) ;
#32 = PERSON_AND_ORGANIZATION_ROLE ( 'creator' ) ;
#33 = CARTESIAN_POINT ( 'NONE',  ( 4.189777606611760026E-14, 1.713475551691181540E-32, 12.00000000000000000 ) ) ;
#34 = DATE_AND_TIME ( #222, #231 ) ;
#35 = CARTESIAN_POINT ( 'NONE',  ( 1.396592535537252750E-15, -4.898587196589410610E-17, 0.3999999999999998002 ) ) ;
#36 = CONICAL_SURFACE ( 'NONE', #134, 1.885000000000013554, 0.7853981633974498333 ) ;
#37 = DIRECTION ( 'NONE',  ( -3.491481338843133355E-15, 1.224646799147353207E-16, -1.000000000000000000 ) ) ;
#38 = FACE_OUTER_BOUND ( 'NONE', #71, .T. ) ;
#39 = MANIFOLD_SOLID_BREP ( 'Corps-Déplacer/Copier1[2]', #208 ) ;
#40 = FACE_OUTER_BOUND ( 'NONE', #91, .T. ) ;
#41 = CARTESIAN_POINT ( 'NONE',  ( -4.029971137757911543E-31, 1.413523595158810840E-32, -1.154229608196388750E-16 ) ) ;
#42 = CC_DESIGN_APPROVAL ( #228, ( #64 ) ) ;
#43 =( NAMED_UNIT ( * ) SI_UNIT ( $, .STERADIAN. ) SOLID_ANGLE_UNIT ( ) );
#44 = DIRECTION ( 'NONE',  ( -4.275831445896958607E-31, -1.000000000000000000, -1.224646799147353207E-16 ) ) ;
#45 = CARTESIAN_POINT ( 'NONE',  ( 2.779219145719134403E-13, 1.999999999999991340, 79.60000000000000853 ) ) ;
#46 = CIRCLE ( 'NONE', #8, 2.000000000000000888 ) ;
#47 = CARTESIAN_POINT ( 'NONE',  ( 4.189777606611760026E-14, 2.285000000000013465, 12.00000000000000000 ) ) ;
#48 = CC_DESIGN_PERSON_AND_ORGANIZATION_ASSIGNMENT ( #50, #105, ( #63 ) ) ;
#49 = APPROVAL_ROLE ( '' ) ;
#50 = PERSON_AND_ORGANIZATION ( #25, #202 ) ;
#51 = CARTESIAN_POINT ( 'NONE',  ( -8.059942275515823087E-31, 2.827047190317621680E-32, -2.308459216392777501E-16 ) ) ;
#52 = DATE_TIME_ROLE ( 'classification_date' ) ;
#53 = ORIENTED_EDGE ( 'NONE', *, *, #158, .F. ) ;
#54 = APPROVAL_ROLE ( '' ) ;
#55 = DIRECTION ( 'NONE',  ( 0.0000000000000000000, 1.000000000000000000, 0.0000000000000000000 ) ) ;
#56 = AXIS2_PLACEMENT_3D ( 'NONE', #104, #120, #217 ) ;
#57 = FACE_OUTER_BOUND ( 'NONE', #114, .T. ) ;
#58 = ADVANCED_FACE ( 'NONE', ( #57, #132 ), #36, .T. ) ;
#59 = CC_DESIGN_PERSON_AND_ORGANIZATION_ASSIGNMENT ( #183, #201, ( #97 ) ) ;
#60 = EDGE_LOOP ( 'NONE', ( #193 ) ) ;
#61 = EDGE_CURVE ( 'NONE', #102, #102, #73, .T. ) ;
#62 = CONICAL_SURFACE ( 'NONE', #56, 1.600000000000000977, 0.7853981633974512766 ) ;
#63 = PRODUCT ( '321683', '321683', '', ( #75 ) ) ;
#64 = SECURITY_CLASSIFICATION ( '', '', #168 ) ;
#65 = CARTESIAN_POINT ( 'NONE',  ( 0.0000000000000000000, 0.0000000000000000000, 0.0000000000000000000 ) ) ;
#66 = VERTEX_POINT ( 'NONE', #160 ) ;
#67 = DIRECTION ( 'NONE',  ( -3.491481338843133355E-15, 1.224646799147353207E-16, -1.000000000000000000 ) ) ;
#68 = EDGE_CURVE ( 'NONE', #82, #82, #213, .T. ) ;
#69 = PRODUCT_DEFINITION ( 'UNKNOWN', '', #97, #83 ) ;
#70 = AXIS2_PLACEMENT_3D ( 'NONE', #111, #173, #55 ) ;
#71 = EDGE_LOOP ( 'NONE', ( #125 ) ) ;
#72 = PERSON_AND_ORGANIZATION_ROLE ( 'classification_officer' ) ;
#73 = CIRCLE ( 'NONE', #106, 1.600000000000000977 ) ;
#74 = EDGE_LOOP ( 'NONE', ( #76 ) ) ;
#75 = MECHANICAL_CONTEXT ( 'NONE', #128, 'mechanical' ) ;
#76 = ORIENTED_EDGE ( 'NONE', *, *, #86, .F. ) ;
#77 = CARTESIAN_POINT ( 'NONE',  ( 0.0000000000000000000, 0.0000000000000000000, 0.0000000000000000000 ) ) ;
#78 = EDGE_LOOP ( 'NONE', ( #130 ) ) ;
#79 = EDGE_CURVE ( 'NONE', #161, #161, #46, .T. ) ;
#80 = LOCAL_TIME ( 13, 56, 27.00000000000000000, #186 ) ;
#81 = CARTESIAN_POINT ( 'NONE',  ( 4.189777606611760026E-14, -1.469576158976823947E-15, 12.00000000000000000 ) ) ;
#82 = VERTEX_POINT ( 'NONE', #47 ) ;
#83 = DESIGN_CONTEXT ( 'detailed design', #212, 'design' ) ;
#84 = FACE_OUTER_BOUND ( 'NONE', #60, .T. ) ;
#85 =( LENGTH_UNIT ( ) NAMED_UNIT ( * ) SI_UNIT ( .MILLI., .METRE. ) );
#86 = EDGE_CURVE ( 'NONE', #182, #182, #28, .T. ) ;
#87 = DIRECTION ( 'NONE',  ( -3.491481338843133355E-15, 1.224646799147353207E-16, -1.000000000000000000 ) ) ;
#88 = CLOSED_SHELL ( 'NONE', ( #156, #94, #227, #196, #170 ) ) ;
#89 = AXIS2_PLACEMENT_3D ( 'NONE', #9, #179, #44 ) ;
#90 = DATE_AND_TIME ( #203, #17 ) ;
#91 = EDGE_LOOP ( 'NONE', ( #150 ) ) ;
#92 = CALENDAR_DATE ( 2021, 2, 12 ) ;
#93 = DIRECTION ( 'NONE',  ( 4.275831445896958607E-31, 1.000000000000000000, 1.224646799147353207E-16 ) ) ;
#94 = ADVANCED_FACE ( 'NONE', ( #1, #38 ), #103, .T. ) ;
#95 = CYLINDRICAL_SURFACE ( 'NONE', #23, 2.285000000000014797 ) ;
#96 = DIRECTION ( 'NONE',  ( 3.491481338843133355E-15, -1.224646799147353207E-16, 1.000000000000000000 ) ) ;
#97 = PRODUCT_DEFINITION_FORMATION_WITH_SPECIFIED_SOURCE ( 'ANY', '', #63, .NOT_KNOWN. ) ;
#98 = DIRECTION ( 'NONE',  ( 0.0000000000000000000, 1.000000000000000000, 0.0000000000000000000 ) ) ;
#99 = AXIS2_PLACEMENT_3D ( 'NONE', #81, #218, #27 ) ;
#100 = ADVANCED_FACE ( 'NONE', ( #40, #15 ), #95, .T. ) ;
#101 = DIRECTION ( 'NONE',  ( 0.0000000000000000000, 0.0000000000000000000, 1.000000000000000000 ) ) ;
#102 = VERTEX_POINT ( 'NONE', #214 ) ;
#103 = CONICAL_SURFACE ( 'NONE', #70, 2.285000000000014797, 0.5235987755982991487 ) ;
#104 = CARTESIAN_POINT ( 'NONE',  ( 2.793185071074506684E-13, -9.797174393178826052E-15, 80.00000000000000000 ) ) ;
#105 = PERSON_AND_ORGANIZATION_ROLE ( 'design_owner' ) ;
#106 = AXIS2_PLACEMENT_3D ( 'NONE', #225, #37, #98 ) ;
#107 = CALENDAR_DATE ( 2021, 2, 12 ) ;
#108 = PERSON_AND_ORGANIZATION ( #25, #202 ) ;
#109 = CARTESIAN_POINT ( 'NONE',  ( 2.779219145719134403E-13, -9.748188521212932624E-15, 79.60000000000000853 ) ) ;
#110 = COORDINATED_UNIVERSAL_TIME_OFFSET ( 1, 0, .AHEAD. ) ;
#111 = CARTESIAN_POINT ( 'NONE',  ( 4.189777606611760026E-14, -1.469576158976823947E-15, 12.00000000000000000 ) ) ;
#112 = CC_DESIGN_PERSON_AND_ORGANIZATION_ASSIGNMENT ( #184, #72, ( #64 ) ) ;
#113 = DIRECTION ( 'NONE',  ( -4.275831445896957731E-31, -1.000000000000000000, -1.224646799147353207E-16 ) ) ;
#114 = EDGE_LOOP ( 'NONE', ( #210 ) ) ;
#115 = PRODUCT_DEFINITION_SHAPE ( 'NONE', 'NONE',  #69 ) ;
#116 = CARTESIAN_POINT ( 'NONE',  ( 1.710569414459005214E-46, 1.885000000000013554, 0.0000000000000000000 ) ) ;
#117 = CC_DESIGN_APPROVAL ( #22, ( #97 ) ) ;
#118 = MANIFOLD_SOLID_BREP ( 'Corps-Déplacer/Copier1[1]', #88 ) ;
#119 = CARTESIAN_POINT ( 'NONE',  ( 0.0000000000000000000, 0.0000000000000000000, 0.0000000000000000000 ) ) ;
#120 = DIRECTION ( 'NONE',  ( -3.491481338843133355E-15, 1.224646799147353207E-16, -1.000000000000000000 ) ) ;
#121 = DIRECTION ( 'NONE',  ( 4.275831445896958607E-31, 1.000000000000000000, 1.224646799147353207E-16 ) ) ;
#122 = APPROVAL_PERSON_ORGANIZATION ( #11, #192, #49 ) ;
#123 = APPROVAL_STATUS ( 'not_yet_approved' ) ;
#124 = ORIENTED_EDGE ( 'NONE', *, *, #233, .F. ) ;
#125 = ORIENTED_EDGE ( 'NONE', *, *, #68, .F. ) ;
#126 = COORDINATED_UNIVERSAL_TIME_OFFSET ( 1, 0, .AHEAD. ) ;
#127 = EDGE_LOOP ( 'NONE', ( #53 ) ) ;
#128 = APPLICATION_CONTEXT ( 'configuration controlled 3d designs of mechanical parts and assemblies' ) ;
#129 = PERSON_AND_ORGANIZATION_ROLE ( 'design_supplier' ) ;
#130 = ORIENTED_EDGE ( 'NONE', *, *, #242, .F. ) ;
#131 = AXIS2_PLACEMENT_3D ( 'NONE', #19, #21, #155 ) ;
#132 = FACE_BOUND ( 'NONE', #127, .T. ) ;
#133 = CARTESIAN_POINT ( 'NONE',  ( -8.059942275515823087E-31, 2.827047190317621680E-32, -2.308459216392777501E-16 ) ) ;
#134 = AXIS2_PLACEMENT_3D ( 'NONE', #133, #96, #113 ) ;
#135 = CC_DESIGN_PERSON_AND_ORGANIZATION_ASSIGNMENT ( #226, #32, ( #69 ) ) ;
#136 = VERTEX_POINT ( 'NONE', #116 ) ;
#137 = ADVANCED_BREP_SHAPE_REPRESENTATION ( '321683', ( #118, #39, #190 ), #234 ) ;
#138 = PLANE ( 'NONE',  #209 ) ;
#139 = AXIS2_PLACEMENT_3D ( 'NONE', #51, #18, #93 ) ;
#140 = DIRECTION ( 'NONE',  ( -3.491481338843133355E-15, 1.224646799147353207E-16, -1.000000000000000000 ) ) ;
#141 = DIRECTION ( 'NONE',  ( 4.275831445896958607E-31, 1.000000000000000000, 1.224646799147353207E-16 ) ) ;
#142 = AXIS2_PLACEMENT_3D ( 'NONE', #24, #140, #178 ) ;
#143 = APPROVAL_DATE_TIME ( #34, #22 ) ;
#144 = APPROVAL_DATE_TIME ( #90, #192 ) ;
#145 = DATE_AND_TIME ( #92, #176 ) ;
#146 = DIRECTION ( 'NONE',  ( -3.491481338843133355E-15, 1.224646799147353207E-16, -1.000000000000000000 ) ) ;
#147 = AXIS2_PLACEMENT_3D ( 'NONE', #41, #5, #141 ) ;
#148 = DATE_TIME_ROLE ( 'creation_date' ) ;
#149 = CC_DESIGN_DATE_AND_TIME_ASSIGNMENT ( #224, #52, ( #64 ) ) ;
#150 = ORIENTED_EDGE ( 'NONE', *, *, #233, .T. ) ;
#151 = APPROVAL_STATUS ( 'not_yet_approved' ) ;
#152 = ORIENTED_EDGE ( 'NONE', *, *, #61, .F. ) ;
#153 = DIRECTION ( 'NONE',  ( -3.491481338843133355E-15, 1.224646799147353207E-16, -1.000000000000000000 ) ) ;
#154 = LOCAL_TIME ( 13, 56, 27.00000000000000000, #206 ) ;
#155 = DIRECTION ( 'NONE',  ( 0.0000000000000000000, 1.000000000000000000, 0.0000000000000000000 ) ) ;
#156 = ADVANCED_FACE ( 'NONE', ( #177 ), #189, .F. ) ;
#157 = CC_DESIGN_PERSON_AND_ORGANIZATION_ASSIGNMENT ( #108, #129, ( #97 ) ) ;
#158 = EDGE_CURVE ( 'NONE', #136, #136, #199, .T. ) ;
#159 = APPROVAL_PERSON_ORGANIZATION ( #221, #22, #54 ) ;
#160 = CARTESIAN_POINT ( 'NONE',  ( 4.362129164179588501E-14, 1.999999999999990452, 12.49363448015716926 ) ) ;
#161 = VERTEX_POINT ( 'NONE', #45 ) ;
#162 = ADVANCED_FACE ( 'NONE', ( #172 ), #243, .T. ) ;
#163 = UNCERTAINTY_MEASURE_WITH_UNIT (LENGTH_MEASURE( 1.000000000000000082E-05 ), #85, 'distance_accuracy_value', 'NONE');
#164 =( NAMED_UNIT ( * ) PLANE_ANGLE_UNIT ( ) SI_UNIT ( $, .RADIAN. ) );
#165 = FACE_OUTER_BOUND ( 'NONE', #207, .T. ) ;
#166 = CC_DESIGN_APPROVAL ( #192, ( #69 ) ) ;
#167 = APPROVAL_DATE_TIME ( #10, #228 ) ;
#168 = SECURITY_CLASSIFICATION_LEVEL ( 'unclassified' ) ;
#169 = DIRECTION ( 'NONE',  ( 3.491481338843133355E-15, -1.224646799147353207E-16, 1.000000000000000000 ) ) ;
#170 = ADVANCED_FACE ( 'NONE', ( #237 ), #138, .F. ) ;
#171 = APPROVAL_ROLE ( '' ) ;
#172 = FACE_OUTER_BOUND ( 'NONE', #232, .T. ) ;
#173 = DIRECTION ( 'NONE',  ( -3.491481338843133355E-15, 1.224646799147353207E-16, -1.000000000000000000 ) ) ;
#174 = DIRECTION ( 'NONE',  ( -3.491481338843133355E-15, 1.224646799147353207E-16, -1.000000000000000000 ) ) ;
#175 = CC_DESIGN_DATE_AND_TIME_ASSIGNMENT ( #145, #148, ( #69 ) ) ;
#176 = LOCAL_TIME ( 13, 56, 27.00000000000000000, #110 ) ;
#177 = FACE_OUTER_BOUND ( 'NONE', #205, .T. ) ;
#178 = DIRECTION ( 'NONE',  ( 0.0000000000000000000, 1.000000000000000000, 0.0000000000000000000 ) ) ;
#179 = DIRECTION ( 'NONE',  ( 3.491481338843133355E-15, -1.224646799147353207E-16, 1.000000000000000000 ) ) ;
#180 = PRODUCT_RELATED_PRODUCT_CATEGORY ( 'detail', '', ( #63 ) ) ;
#181 = VERTEX_POINT ( 'NONE', #29 ) ;
#182 = VERTEX_POINT ( 'NONE', #198 ) ;
#183 = PERSON_AND_ORGANIZATION ( #25, #202 ) ;
#184 = PERSON_AND_ORGANIZATION ( #25, #202 ) ;
#185 = ADVANCED_FACE ( 'NONE', ( #238 ), #215, .T. ) ;
#186 = COORDINATED_UNIVERSAL_TIME_OFFSET ( 1, 0, .AHEAD. ) ;
#187 = ORIENTED_EDGE ( 'NONE', *, *, #158, .T. ) ;
#188 = PERSON_AND_ORGANIZATION ( #25, #202 ) ;
#189 = PLANE ( 'NONE',  #195 ) ;
#190 = AXIS2_PLACEMENT_3D ( 'NONE', #65, #101, #30 ) ;
#191 = ORIENTED_EDGE ( 'NONE', *, *, #61, .T. ) ;
#192 = APPROVAL ( #151, 'UNSPECIFIED' ) ;
#193 = ORIENTED_EDGE ( 'NONE', *, *, #79, .T. ) ;
#194 = DIRECTION ( 'NONE',  ( 4.275831445896958607E-31, 1.000000000000000000, 1.224646799147353207E-16 ) ) ;
#195 = AXIS2_PLACEMENT_3D ( 'NONE', #33, #169, #223 ) ;
#196 = ADVANCED_FACE ( 'NONE', ( #165, #26 ), #62, .T. ) ;
#197 = CYLINDRICAL_SURFACE ( 'NONE', #7, 1.999999999999996669 ) ;
#198 = CARTESIAN_POINT ( 'NONE',  ( 1.396592535537253737E-15, 2.285000000000014797, 0.4000000000000000777 ) ) ;
#199 = CIRCLE ( 'NONE', #139, 1.885000000000013554 ) ;
#200 = DIRECTION ( 'NONE',  ( 4.275831445896958607E-31, 1.000000000000000000, 1.224646799147353207E-16 ) ) ;
#201 = PERSON_AND_ORGANIZATION_ROLE ( 'creator' ) ;
#202 = ORGANIZATION ( 'UNSPECIFIED', 'UNSPECIFIED', '' ) ;
#203 = CALENDAR_DATE ( 2021, 2, 12 ) ;
#204 = ORIENTED_EDGE ( 'NONE', *, *, #242, .T. ) ;
#205 = EDGE_LOOP ( 'NONE', ( #3 ) ) ;
#206 = COORDINATED_UNIVERSAL_TIME_OFFSET ( 1, 0, .AHEAD. ) ;
#207 = EDGE_LOOP ( 'NONE', ( #230 ) ) ;
#208 = CLOSED_SHELL ( 'NONE', ( #100, #162, #185, #58 ) ) ;
#209 = AXIS2_PLACEMENT_3D ( 'NONE', #216, #67, #121 ) ;
#210 = ORIENTED_EDGE ( 'NONE', *, *, #86, .T. ) ;
#211 = DIRECTION ( 'NONE',  ( 0.0000000000000000000, 1.000000000000000000, 0.0000000000000000000 ) ) ;
#212 = APPLICATION_CONTEXT ( 'configuration controlled 3d designs of mechanical parts and assemblies' ) ;
#213 = CIRCLE ( 'NONE', #131, 2.285000000000014797 ) ;
#214 = CARTESIAN_POINT ( 'NONE',  ( 2.793185071074506684E-13, 1.599999999999991207, 80.00000000000000000 ) ) ;
#215 = PLANE ( 'NONE',  #147 ) ;
#216 = CARTESIAN_POINT ( 'NONE',  ( 2.793185071074506684E-13, 1.199807826129472128E-32, 80.00000000000000000 ) ) ;
#217 = DIRECTION ( 'NONE',  ( 0.0000000000000000000, 1.000000000000000000, 0.0000000000000000000 ) ) ;
#218 = DIRECTION ( 'NONE',  ( -3.491481338843133355E-15, 1.224646799147353207E-16, -1.000000000000000000 ) ) ;
#219 = CIRCLE ( 'NONE', #99, 2.285000000000014797 ) ;
#220 = EDGE_LOOP ( 'NONE', ( #204 ) ) ;
#221 = PERSON_AND_ORGANIZATION ( #25, #202 ) ;
#222 = CALENDAR_DATE ( 2021, 2, 12 ) ;
#223 = DIRECTION ( 'NONE',  ( -4.275831445896958607E-31, -1.000000000000000000, -1.224646799147353207E-16 ) ) ;
#224 = DATE_AND_TIME ( #14, #80 ) ;
#225 = CARTESIAN_POINT ( 'NONE',  ( 2.793185071074506684E-13, -9.797174393178826052E-15, 80.00000000000000000 ) ) ;
#226 = PERSON_AND_ORGANIZATION ( #25, #202 ) ;
#227 = ADVANCED_FACE ( 'NONE', ( #6, #84 ), #197, .T. ) ;
#228 = APPROVAL ( #16, 'UNSPECIFIED' ) ;
#229 = DIRECTION ( 'NONE',  ( 4.214288718571604450E-31, 1.000000000000000000, 1.186216818911922680E-16 ) ) ;
#230 = ORIENTED_EDGE ( 'NONE', *, *, #79, .F. ) ;
#231 = LOCAL_TIME ( 13, 56, 27.00000000000000000, #126 ) ;
#232 = EDGE_LOOP ( 'NONE', ( #124 ) ) ;
#233 = EDGE_CURVE ( 'NONE', #181, #181, #219, .T. ) ;
#234 =( GEOMETRIC_REPRESENTATION_CONTEXT ( 3 ) GLOBAL_UNCERTAINTY_ASSIGNED_CONTEXT ( ( #163 ) ) GLOBAL_UNIT_ASSIGNED_CONTEXT ( ( #85, #164, #43 ) ) REPRESENTATION_CONTEXT ( 'NONE', 'WORKASPACE' ) );
#235 = APPLICATION_PROTOCOL_DEFINITION ( 'international standard', 'config_control_design', 1994, #128 ) ;
#236 = CC_DESIGN_SECURITY_CLASSIFICATION ( #64, ( #97 ) ) ;
#237 = FACE_OUTER_BOUND ( 'NONE', #2, .T. ) ;
#238 = FACE_OUTER_BOUND ( 'NONE', #20, .T. ) ;
#239 = SHAPE_DEFINITION_REPRESENTATION ( #115, #137 ) ;
#240 = COORDINATED_UNIVERSAL_TIME_OFFSET ( 1, 0, .AHEAD. ) ;
#241 = EDGE_LOOP ( 'NONE', ( #191 ) ) ;
#242 = EDGE_CURVE ( 'NONE', #66, #66, #4, .T. ) ;
#243 = PLANE ( 'NONE',  #89 ) ;
ENDSEC;
END-ISO-10303-21;
