ISO-10303-21;
HEADER;
FILE_DESCRIPTION (( 'STEP AP203' ),
    '1' );
FILE_NAME ('321682.step',
    '2021-12-02T12:56:27',
    ( '' ),
    ( '' ),
    'SwSTEP 2.0',
    'SolidWorks 2019',
    '' );
FILE_SCHEMA (( 'CONFIG_CONTROL_DESIGN' ));
ENDSEC;

DATA;
#1 = AXIS2_PLACEMENT_3D ( 'NONE', #181, #66, #86 ) ;
#2 = DIRECTION ( 'NONE',  ( 0.0000000000000000000, 1.000000000000000000, 0.0000000000000000000 ) ) ;
#3 = CARTESIAN_POINT ( 'NONE',  ( 4.189777606611760026E-14, -1.469576158976823947E-15, 12.00000000000000000 ) ) ;
#4 = AXIS2_PLACEMENT_3D ( 'NONE', #160, #204, #2 ) ;
#5 = FACE_BOUND ( 'NONE', #237, .T. ) ;
#6 = DIRECTION ( 'NONE',  ( 3.491481338843133355E-15, -1.224646799147353207E-16, 1.000000000000000000 ) ) ;
#7 = DIRECTION ( 'NONE',  ( -3.491481338843133355E-15, 1.224646799147353207E-16, -1.000000000000000000 ) ) ;
#8 = EDGE_LOOP ( 'NONE', ( #122 ) ) ;
#9 = ORIENTED_EDGE ( 'NONE', *, *, #153, .T. ) ;
#10 = CARTESIAN_POINT ( 'NONE',  ( 1.396592535537253342E-15, 2.280000000000015348, 0.3999999999999999667 ) ) ;
#11 = APPLICATION_PROTOCOL_DEFINITION ( 'international standard', 'config_control_design', 1994, #80 ) ;
#12 = FACE_OUTER_BOUND ( 'NONE', #198, .T. ) ;
#13 = MANIFOLD_SOLID_BREP ( 'Corps-Déplacer/Copier1[1]', #120 ) ;
#14 = DATE_AND_TIME ( #98, #17 ) ;
#15 = COORDINATED_UNIVERSAL_TIME_OFFSET ( 1, 0, .AHEAD. ) ;
#16 = AXIS2_PLACEMENT_3D ( 'NONE', #175, #158, #201 ) ;
#17 = LOCAL_TIME ( 13, 56, 27.00000000000000000, #147 ) ;
#18 = DATE_AND_TIME ( #112, #227 ) ;
#19 = ADVANCED_FACE ( 'NONE', ( #83, #24 ), #107, .T. ) ;
#20 = CC_DESIGN_APPROVAL ( #155, ( #199 ) ) ;
#21 = CARTESIAN_POINT ( 'NONE',  ( 4.189777606611760026E-14, -1.469576158976823947E-15, 12.00000000000000000 ) ) ;
#22 = ORIENTED_EDGE ( 'NONE', *, *, #238, .T. ) ;
#23 = APPROVAL_PERSON_ORGANIZATION ( #96, #72, #151 ) ;
#24 = FACE_OUTER_BOUND ( 'NONE', #105, .T. ) ;
#25 = DIRECTION ( 'NONE',  ( 0.0000000000000000000, 1.000000000000000000, 0.0000000000000000000 ) ) ;
#26 = DIRECTION ( 'NONE',  ( -3.491481338843133355E-15, 1.224646799147353207E-16, -1.000000000000000000 ) ) ;
#27 = DESIGN_CONTEXT ( 'detailed design', #212, 'design' ) ;
#28 = DIRECTION ( 'NONE',  ( -3.491481338843133355E-15, 1.224646799147353207E-16, -1.000000000000000000 ) ) ;
#29 = APPROVAL_STATUS ( 'not_yet_approved' ) ;
#30 = FACE_OUTER_BOUND ( 'NONE', #214, .T. ) ;
#31 = COORDINATED_UNIVERSAL_TIME_OFFSET ( 1, 0, .AHEAD. ) ;
#32 = PERSON_AND_ORGANIZATION ( #74, #209 ) ;
#33 = CONICAL_SURFACE ( 'NONE', #106, 2.280000000000014904, 0.5235987755983001479 ) ;
#34 = CC_DESIGN_DATE_AND_TIME_ASSIGNMENT ( #239, #110, ( #197 ) ) ;
#35 = ADVANCED_FACE ( 'NONE', ( #217, #123 ), #33, .T. ) ;
#36 = CC_DESIGN_PERSON_AND_ORGANIZATION_ASSIGNMENT ( #93, #49, ( #50 ) ) ;
#37 = AXIS2_PLACEMENT_3D ( 'NONE', #3, #159, #81 ) ;
#38 = EDGE_LOOP ( 'NONE', ( #77 ) ) ;
#39 = EDGE_LOOP ( 'NONE', ( #161 ) ) ;
#40 = DIRECTION ( 'NONE',  ( 3.491481338843133355E-15, -1.224646799147353207E-16, 1.000000000000000000 ) ) ;
#41 = CARTESIAN_POINT ( 'NONE',  ( -4.019281559143170938E-31, 1.409774195702156442E-32, -1.151167991198520559E-16 ) ) ;
#42 = DIRECTION ( 'NONE',  ( -3.491481338843133355E-15, 1.224646799147353207E-16, -1.000000000000000000 ) ) ;
#43 = ORIENTED_EDGE ( 'NONE', *, *, #136, .F. ) ;
#44 = ADVANCED_FACE ( 'NONE', ( #125 ), #144, .F. ) ;
#45 = CARTESIAN_POINT ( 'NONE',  ( -8.038563118286341876E-31, 2.819548391404312884E-32, -2.302335982397041118E-16 ) ) ;
#46 = DIRECTION ( 'NONE',  ( -3.491481338843133355E-15, 1.224646799147353207E-16, -1.000000000000000000 ) ) ;
#47 = CARTESIAN_POINT ( 'NONE',  ( 4.189777606611760026E-14, 2.280000000000013571, 12.00000000000000000 ) ) ;
#48 = SECURITY_CLASSIFICATION_LEVEL ( 'unclassified' ) ;
#49 = PERSON_AND_ORGANIZATION_ROLE ( 'design_owner' ) ;
#50 = PRODUCT ( '321682', '321682', '', ( #128 ) ) ;
#51 = APPROVAL_PERSON_ORGANIZATION ( #113, #234, #189 ) ;
#52 = EDGE_LOOP ( 'NONE', ( #64 ) ) ;
#53 = AXIS2_PLACEMENT_3D ( 'NONE', #141, #42, #25 ) ;
#54 = CC_DESIGN_PERSON_AND_ORGANIZATION_ASSIGNMENT ( #114, #190, ( #70 ) ) ;
#55 = AXIS2_PLACEMENT_3D ( 'NONE', #200, #7, #85 ) ;
#56 = DIRECTION ( 'NONE',  ( 4.223530579796541443E-31, 1.000000000000000000, 1.188818171584974935E-16 ) ) ;
#57 = PLANE ( 'NONE',  #222 ) ;
#58 = FACE_OUTER_BOUND ( 'NONE', #52, .T. ) ;
#59 = CARTESIAN_POINT ( 'NONE',  ( 0.0000000000000000000, 1.880000000000013882, 0.0000000000000000000 ) ) ;
#60 = EDGE_CURVE ( 'NONE', #166, #166, #185, .T. ) ;
#61 = FACE_BOUND ( 'NONE', #39, .T. ) ;
#62 = DIRECTION ( 'NONE',  ( -3.491481338843133355E-15, 1.224646799147353207E-16, -1.000000000000000000 ) ) ;
#63 = CIRCLE ( 'NONE', #225, 1.999999999999992228 ) ;
#64 = ORIENTED_EDGE ( 'NONE', *, *, #136, .T. ) ;
#65 = COORDINATED_UNIVERSAL_TIME_OFFSET ( 1, 0, .AHEAD. ) ;
#66 = DIRECTION ( 'NONE',  ( 3.491481338843133355E-15, -1.224646799147353207E-16, 1.000000000000000000 ) ) ;
#67 = ORIENTED_EDGE ( 'NONE', *, *, #60, .F. ) ;
#68 = APPROVAL_STATUS ( 'not_yet_approved' ) ;
#69 =( GEOMETRIC_REPRESENTATION_CONTEXT ( 3 ) GLOBAL_UNCERTAINTY_ASSIGNED_CONTEXT ( ( #183 ) ) GLOBAL_UNIT_ASSIGNED_CONTEXT ( ( #102, #73, #218 ) ) REPRESENTATION_CONTEXT ( 'NONE', 'WORKASPACE' ) );
#70 = PRODUCT_DEFINITION_FORMATION_WITH_SPECIFIED_SOURCE ( 'ANY', '', #50, .NOT_KNOWN. ) ;
#71 = DATE_AND_TIME ( #240, #76 ) ;
#72 = APPROVAL ( #29, 'UNSPECIFIED' ) ;
#73 =( NAMED_UNIT ( * ) PLANE_ANGLE_UNIT ( ) SI_UNIT ( $, .RADIAN. ) );
#74 = PERSON ( 'UNSPECIFIED', 'UNSPECIFIED', 'UNSPECIFIED', ('UNSPECIFIED'), ('UNSPECIFIED'), ('UNSPECIFIED') ) ;
#75 = DATE_AND_TIME ( #242, #101 ) ;
#76 = LOCAL_TIME ( 13, 56, 27.00000000000000000, #15 ) ;
#77 = ORIENTED_EDGE ( 'NONE', *, *, #60, .T. ) ;
#78 = CIRCLE ( 'NONE', #124, 2.000000000000000888 ) ;
#79 = APPROVAL_PERSON_ORGANIZATION ( #32, #155, #191 ) ;
#80 = APPLICATION_CONTEXT ( 'configuration controlled 3d designs of mechanical parts and assemblies' ) ;
#81 = DIRECTION ( 'NONE',  ( 0.0000000000000000000, 1.000000000000000000, 0.0000000000000000000 ) ) ;
#82 = AXIS2_PLACEMENT_3D ( 'NONE', #202, #46, #157 ) ;
#83 = FACE_OUTER_BOUND ( 'NONE', #38, .T. ) ;
#84 = VERTEX_POINT ( 'NONE', #59 ) ;
#85 = DIRECTION ( 'NONE',  ( 4.275831445896958607E-31, 1.000000000000000000, 1.224646799147353207E-16 ) ) ;
#86 = DIRECTION ( 'NONE',  ( -4.275831445896958607E-31, -1.000000000000000000, -1.224646799147353207E-16 ) ) ;
#87 = ORIENTED_EDGE ( 'NONE', *, *, #243, .F. ) ;
#88 = AXIS2_PLACEMENT_3D ( 'NONE', #45, #40, #163 ) ;
#89 = APPLICATION_PROTOCOL_DEFINITION ( 'international standard', 'config_control_design', 1994, #212 ) ;
#90 = CC_DESIGN_DATE_AND_TIME_ASSIGNMENT ( #71, #208, ( #199 ) ) ;
#91 = EDGE_LOOP ( 'NONE', ( #87 ) ) ;
#92 = VERTEX_POINT ( 'NONE', #165 ) ;
#93 = PERSON_AND_ORGANIZATION ( #74, #209 ) ;
#94 = DIRECTION ( 'NONE',  ( 0.0000000000000000000, 1.000000000000000000, 0.0000000000000000000 ) ) ;
#95 = PERSON_AND_ORGANIZATION ( #74, #209 ) ;
#96 = PERSON_AND_ORGANIZATION ( #74, #209 ) ;
#97 = CC_DESIGN_APPROVAL ( #72, ( #197 ) ) ;
#98 = CALENDAR_DATE ( 2021, 2, 12 ) ;
#99 = EDGE_CURVE ( 'NONE', #167, #167, #172, .T. ) ;
#100 = MANIFOLD_SOLID_BREP ( 'Corps-Déplacer/Copier1[2]', #137 ) ;
#101 = LOCAL_TIME ( 13, 56, 27.00000000000000000, #170 ) ;
#102 =( LENGTH_UNIT ( ) NAMED_UNIT ( * ) SI_UNIT ( .MILLI., .METRE. ) );
#103 = ADVANCED_FACE ( 'NONE', ( #231 ), #57, .F. ) ;
#104 = DIRECTION ( 'NONE',  ( 0.0000000000000000000, 1.000000000000000000, 0.0000000000000000000 ) ) ;
#105 = EDGE_LOOP ( 'NONE', ( #139 ) ) ;
#106 = AXIS2_PLACEMENT_3D ( 'NONE', #21, #28, #104 ) ;
#107 = CYLINDRICAL_SURFACE ( 'NONE', #162, 2.280000000000015348 ) ;
#108 = CARTESIAN_POINT ( 'NONE',  ( 2.779219145719134403E-13, -9.748188521212932624E-15, 79.60000000000000853 ) ) ;
#109 = CC_DESIGN_PERSON_AND_ORGANIZATION_ASSIGNMENT ( #132, #149, ( #70 ) ) ;
#110 = DATE_TIME_ROLE ( 'creation_date' ) ;
#111 = EDGE_LOOP ( 'NONE', ( #22 ) ) ;
#112 = CALENDAR_DATE ( 2021, 2, 12 ) ;
#113 = PERSON_AND_ORGANIZATION ( #74, #209 ) ;
#114 = PERSON_AND_ORGANIZATION ( #74, #209 ) ;
#115 = APPROVAL_STATUS ( 'not_yet_approved' ) ;
#116 = ADVANCED_FACE ( 'NONE', ( #58 ), #215, .T. ) ;
#117 = FACE_OUTER_BOUND ( 'NONE', #91, .T. ) ;
#118 = AXIS2_PLACEMENT_3D ( 'NONE', #41, #26, #180 ) ;
#119 = CIRCLE ( 'NONE', #4, 2.280000000000014904 ) ;
#120 = CLOSED_SHELL ( 'NONE', ( #103, #35, #154, #195, #44 ) ) ;
#121 = ORIENTED_EDGE ( 'NONE', *, *, #223, .T. ) ;
#122 = ORIENTED_EDGE ( 'NONE', *, *, #243, .T. ) ;
#123 = FACE_OUTER_BOUND ( 'NONE', #233, .T. ) ;
#124 = AXIS2_PLACEMENT_3D ( 'NONE', #108, #62, #142 ) ;
#125 = FACE_OUTER_BOUND ( 'NONE', #146, .T. ) ;
#126 = SHAPE_DEFINITION_REPRESENTATION ( #226, #152 ) ;
#127 = DIRECTION ( 'NONE',  ( -3.491481338843133355E-15, 1.224646799147353207E-16, -1.000000000000000000 ) ) ;
#128 = MECHANICAL_CONTEXT ( 'NONE', #80, 'mechanical' ) ;
#129 = PLANE ( 'NONE',  #1 ) ;
#130 = CONICAL_SURFACE ( 'NONE', #53, 1.600000000000000977, 0.7853981633974512766 ) ;
#131 = PERSON_AND_ORGANIZATION_ROLE ( 'creator' ) ;
#132 = PERSON_AND_ORGANIZATION ( #74, #209 ) ;
#133 = CALENDAR_DATE ( 2021, 2, 12 ) ;
#134 = EDGE_LOOP ( 'NONE', ( #121 ) ) ;
#135 = AXIS2_PLACEMENT_3D ( 'NONE', #206, #187, #203 ) ;
#136 = EDGE_CURVE ( 'NONE', #84, #84, #143, .T. ) ;
#137 = CLOSED_SHELL ( 'NONE', ( #19, #210, #116, #171 ) ) ;
#138 = CARTESIAN_POINT ( 'NONE',  ( 4.189777606611760026E-14, 1.709726152234527143E-32, 12.00000000000000000 ) ) ;
#139 = ORIENTED_EDGE ( 'NONE', *, *, #238, .F. ) ;
#140 = VERTEX_POINT ( 'NONE', #47 ) ;
#141 = CARTESIAN_POINT ( 'NONE',  ( 2.793185071074506684E-13, -9.797174393178826052E-15, 80.00000000000000000 ) ) ;
#142 = DIRECTION ( 'NONE',  ( 0.0000000000000000000, 1.000000000000000000, 0.0000000000000000000 ) ) ;
#143 = CIRCLE ( 'NONE', #55, 1.880000000000013882 ) ;
#144 = PLANE ( 'NONE',  #16 ) ;
#145 = CARTESIAN_POINT ( 'NONE',  ( 2.779219145719134403E-13, 1.999999999999991340, 79.60000000000000853 ) ) ;
#146 = EDGE_LOOP ( 'NONE', ( #184 ) ) ;
#147 = COORDINATED_UNIVERSAL_TIME_OFFSET ( 1, 0, .AHEAD. ) ;
#148 = CIRCLE ( 'NONE', #173, 2.280000000000015348 ) ;
#149 = PERSON_AND_ORGANIZATION_ROLE ( 'creator' ) ;
#150 = CARTESIAN_POINT ( 'NONE',  ( 0.0000000000000000000, 0.0000000000000000000, 0.0000000000000000000 ) ) ;
#151 = APPROVAL_ROLE ( '' ) ;
#152 = ADVANCED_BREP_SHAPE_REPRESENTATION ( '321682', ( #13, #100, #135 ), #69 ) ;
#153 = EDGE_CURVE ( 'NONE', #186, #186, #78, .T. ) ;
#154 = ADVANCED_FACE ( 'NONE', ( #117, #12 ), #193, .T. ) ;
#155 = APPROVAL ( #115, 'UNSPECIFIED' ) ;
#156 = CARTESIAN_POINT ( 'NONE',  ( 1.396592535537252356E-15, -4.898587196589408761E-17, 0.3999999999999996891 ) ) ;
#157 = DIRECTION ( 'NONE',  ( 0.0000000000000000000, 1.000000000000000000, 0.0000000000000000000 ) ) ;
#158 = DIRECTION ( 'NONE',  ( -3.491481338843133355E-15, 1.224646799147353207E-16, -1.000000000000000000 ) ) ;
#159 = DIRECTION ( 'NONE',  ( -3.491481338843133355E-15, 1.224646799147353207E-16, -1.000000000000000000 ) ) ;
#160 = CARTESIAN_POINT ( 'NONE',  ( 4.189777606611760026E-14, -1.469576158976823947E-15, 12.00000000000000000 ) ) ;
#161 = ORIENTED_EDGE ( 'NONE', *, *, #99, .T. ) ;
#162 = AXIS2_PLACEMENT_3D ( 'NONE', #196, #127, #178 ) ;
#163 = DIRECTION ( 'NONE',  ( -4.275831445896958607E-31, -1.000000000000000000, -1.224646799147353207E-16 ) ) ;
#164 = EDGE_LOOP ( 'NONE', ( #235 ) ) ;
#165 = CARTESIAN_POINT ( 'NONE',  ( 4.359105452643310997E-14, 1.999999999999990452, 12.48497422611932350 ) ) ;
#166 = VERTEX_POINT ( 'NONE', #207 ) ;
#167 = VERTEX_POINT ( 'NONE', #205 ) ;
#168 = PERSON_AND_ORGANIZATION_ROLE ( 'classification_officer' ) ;
#169 = APPROVAL_DATE_TIME ( #18, #72 ) ;
#170 = COORDINATED_UNIVERSAL_TIME_OFFSET ( 1, 0, .AHEAD. ) ;
#171 = ADVANCED_FACE ( 'NONE', ( #179, #5 ), #194, .T. ) ;
#172 = CIRCLE ( 'NONE', #82, 1.600000000000000977 ) ;
#173 = AXIS2_PLACEMENT_3D ( 'NONE', #156, #230, #56 ) ;
#174 = LOCAL_TIME ( 13, 56, 27.00000000000000000, #65 ) ;
#175 = CARTESIAN_POINT ( 'NONE',  ( 2.793185071074506684E-13, 1.199807826129472128E-32, 80.00000000000000000 ) ) ;
#176 = DIRECTION ( 'NONE',  ( 4.275831445896958607E-31, 1.000000000000000000, 1.224646799147353207E-16 ) ) ;
#177 = DIRECTION ( 'NONE',  ( -3.491481338843133355E-15, 1.224646799147353207E-16, -1.000000000000000000 ) ) ;
#178 = DIRECTION ( 'NONE',  ( 4.275831445896959482E-31, 1.000000000000000000, 1.224646799147353454E-16 ) ) ;
#179 = FACE_OUTER_BOUND ( 'NONE', #111, .T. ) ;
#180 = DIRECTION ( 'NONE',  ( 4.275831445896958607E-31, 1.000000000000000000, 1.224646799147353207E-16 ) ) ;
#181 = CARTESIAN_POINT ( 'NONE',  ( 4.189777606611760026E-14, 1.709726152234527143E-32, 12.00000000000000000 ) ) ;
#182 = ORIENTED_EDGE ( 'NONE', *, *, #223, .F. ) ;
#183 = UNCERTAINTY_MEASURE_WITH_UNIT (LENGTH_MEASURE( 1.000000000000000082E-05 ), #102, 'distance_accuracy_value', 'NONE');
#184 = ORIENTED_EDGE ( 'NONE', *, *, #99, .F. ) ;
#185 = CIRCLE ( 'NONE', #37, 2.280000000000014904 ) ;
#186 = VERTEX_POINT ( 'NONE', #145 ) ;
#187 = DIRECTION ( 'NONE',  ( 0.0000000000000000000, 0.0000000000000000000, 1.000000000000000000 ) ) ;
#188 = PRODUCT_RELATED_PRODUCT_CATEGORY ( 'detail', '', ( #50 ) ) ;
#189 = APPROVAL_ROLE ( '' ) ;
#190 = PERSON_AND_ORGANIZATION_ROLE ( 'design_supplier' ) ;
#191 = APPROVAL_ROLE ( '' ) ;
#192 = DIRECTION ( 'NONE',  ( -3.491481338843133355E-15, 1.224646799147353207E-16, -1.000000000000000000 ) ) ;
#193 = CYLINDRICAL_SURFACE ( 'NONE', #229, 1.999999999999996669 ) ;
#194 = CONICAL_SURFACE ( 'NONE', #88, 1.880000000000013882, 0.7853981633974504994 ) ;
#195 = ADVANCED_FACE ( 'NONE', ( #236, #61 ), #130, .T. ) ;
#196 = CARTESIAN_POINT ( 'NONE',  ( 0.0000000000000000000, 0.0000000000000000000, 0.0000000000000000000 ) ) ;
#197 = PRODUCT_DEFINITION ( 'UNKNOWN', '', #70, #27 ) ;
#198 = EDGE_LOOP ( 'NONE', ( #9 ) ) ;
#199 = SECURITY_CLASSIFICATION ( '', '', #48 ) ;
#200 = CARTESIAN_POINT ( 'NONE',  ( -8.038563118286341876E-31, 2.819548391404312884E-32, -2.302335982397041118E-16 ) ) ;
#201 = DIRECTION ( 'NONE',  ( 4.275831445896958607E-31, 1.000000000000000000, 1.224646799147353207E-16 ) ) ;
#202 = CARTESIAN_POINT ( 'NONE',  ( 2.793185071074506684E-13, -9.797174393178826052E-15, 80.00000000000000000 ) ) ;
#203 = DIRECTION ( 'NONE',  ( 1.000000000000000000, 0.0000000000000000000, 0.0000000000000000000 ) ) ;
#204 = DIRECTION ( 'NONE',  ( -3.491481338843133355E-15, 1.224646799147353207E-16, -1.000000000000000000 ) ) ;
#205 = CARTESIAN_POINT ( 'NONE',  ( 2.793185071074506684E-13, 1.599999999999991207, 80.00000000000000000 ) ) ;
#206 = CARTESIAN_POINT ( 'NONE',  ( 0.0000000000000000000, 0.0000000000000000000, 0.0000000000000000000 ) ) ;
#207 = CARTESIAN_POINT ( 'NONE',  ( 4.189777606611760026E-14, 2.280000000000013571, 12.00000000000000000 ) ) ;
#208 = DATE_TIME_ROLE ( 'classification_date' ) ;
#209 = ORGANIZATION ( 'UNSPECIFIED', 'UNSPECIFIED', '' ) ;
#210 = ADVANCED_FACE ( 'NONE', ( #30 ), #129, .T. ) ;
#211 = CC_DESIGN_APPROVAL ( #234, ( #70 ) ) ;
#212 = APPLICATION_CONTEXT ( 'configuration controlled 3d designs of mechanical parts and assemblies' ) ;
#213 = CARTESIAN_POINT ( 'NONE',  ( 4.359105452643310997E-14, -1.528968372345423268E-15, 12.48497422611932350 ) ) ;
#214 = EDGE_LOOP ( 'NONE', ( #67 ) ) ;
#215 = PLANE ( 'NONE',  #118 ) ;
#216 = CC_DESIGN_SECURITY_CLASSIFICATION ( #199, ( #70 ) ) ;
#217 = FACE_BOUND ( 'NONE', #8, .T. ) ;
#218 =( NAMED_UNIT ( * ) SI_UNIT ( $, .STERADIAN. ) SOLID_ANGLE_UNIT ( ) );
#219 = CC_DESIGN_PERSON_AND_ORGANIZATION_ASSIGNMENT ( #95, #168, ( #199 ) ) ;
#220 = VERTEX_POINT ( 'NONE', #10 ) ;
#221 = APPROVAL_DATE_TIME ( #14, #234 ) ;
#222 = AXIS2_PLACEMENT_3D ( 'NONE', #138, #6, #232 ) ;
#223 = EDGE_CURVE ( 'NONE', #140, #140, #119, .T. ) ;
#224 = APPROVAL_DATE_TIME ( #75, #155 ) ;
#225 = AXIS2_PLACEMENT_3D ( 'NONE', #213, #177, #94 ) ;
#226 = PRODUCT_DEFINITION_SHAPE ( 'NONE', 'NONE',  #197 ) ;
#227 = LOCAL_TIME ( 13, 56, 27.00000000000000000, #31 ) ;
#228 = CC_DESIGN_PERSON_AND_ORGANIZATION_ASSIGNMENT ( #241, #131, ( #197 ) ) ;
#229 = AXIS2_PLACEMENT_3D ( 'NONE', #150, #192, #176 ) ;
#230 = DIRECTION ( 'NONE',  ( -3.491481338843133355E-15, 1.224646799147353207E-16, -1.000000000000000000 ) ) ;
#231 = FACE_OUTER_BOUND ( 'NONE', #134, .T. ) ;
#232 = DIRECTION ( 'NONE',  ( -4.275831445896958607E-31, -1.000000000000000000, -1.224646799147353207E-16 ) ) ;
#233 = EDGE_LOOP ( 'NONE', ( #182 ) ) ;
#234 = APPROVAL ( #68, 'UNSPECIFIED' ) ;
#235 = ORIENTED_EDGE ( 'NONE', *, *, #153, .F. ) ;
#236 = FACE_OUTER_BOUND ( 'NONE', #164, .T. ) ;
#237 = EDGE_LOOP ( 'NONE', ( #43 ) ) ;
#238 = EDGE_CURVE ( 'NONE', #220, #220, #148, .T. ) ;
#239 = DATE_AND_TIME ( #133, #174 ) ;
#240 = CALENDAR_DATE ( 2021, 2, 12 ) ;
#241 = PERSON_AND_ORGANIZATION ( #74, #209 ) ;
#242 = CALENDAR_DATE ( 2021, 2, 12 ) ;
#243 = EDGE_CURVE ( 'NONE', #92, #92, #63, .T. ) ;
ENDSEC;
END-ISO-10303-21;
