ISO-10303-21;
HEADER;
FILE_DESCRIPTION (( 'STEP AP203' ),
    '1' );
FILE_NAME ('321681.step',
    '2021-12-02T12:56:26',
    ( '' ),
    ( '' ),
    'SwSTEP 2.0',
    'SolidWorks 2019',
    '' );
FILE_SCHEMA (( 'CONFIG_CONTROL_DESIGN' ));
ENDSEC;

DATA;
#1 = CARTESIAN_POINT ( 'NONE',  ( 4.189777606611760026E-14, 2.275000000000013678, 12.00000000000000000 ) ) ;
#2 = APPROVAL_ROLE ( '' ) ;
#3 = CC_DESIGN_APPROVAL ( #21, ( #241 ) ) ;
#4 = AXIS2_PLACEMENT_3D ( 'NONE', #72, #17, #164 ) ;
#5 = DATE_TIME_ROLE ( 'classification_date' ) ;
#6 = EDGE_CURVE ( 'NONE', #74, #74, #90, .T. ) ;
#7 = ORIENTED_EDGE ( 'NONE', *, *, #84, .F. ) ;
#8 = APPROVAL_STATUS ( 'not_yet_approved' ) ;
#9 = ORIENTED_EDGE ( 'NONE', *, *, #153, .T. ) ;
#10 = APPLICATION_CONTEXT ( 'configuration controlled 3d designs of mechanical parts and assemblies' ) ;
#11 = DIRECTION ( 'NONE',  ( -3.491481338843133355E-15, 1.224646799147353207E-16, -1.000000000000000000 ) ) ;
#12 = COORDINATED_UNIVERSAL_TIME_OFFSET ( 1, 0, .AHEAD. ) ;
#13 = DIRECTION ( 'NONE',  ( -3.491481338843133355E-15, 1.224646799147353207E-16, -1.000000000000000000 ) ) ;
#14 = DIRECTION ( 'NONE',  ( 3.491481338843133355E-15, -1.224646799147353207E-16, 1.000000000000000000 ) ) ;
#15 = DIRECTION ( 'NONE',  ( 3.491481338843133355E-15, -1.224646799147353207E-16, 1.000000000000000000 ) ) ;
#16 = AXIS2_PLACEMENT_3D ( 'NONE', #188, #147, #225 ) ;
#17 = DIRECTION ( 'NONE',  ( -3.491481338843133355E-15, 1.224646799147353207E-16, -1.000000000000000000 ) ) ;
#18 = PERSON ( 'UNSPECIFIED', 'UNSPECIFIED', 'UNSPECIFIED', ('UNSPECIFIED'), ('UNSPECIFIED'), ('UNSPECIFIED') ) ;
#19 = FACE_OUTER_BOUND ( 'NONE', #220, .T. ) ;
#20 = CARTESIAN_POINT ( 'NONE',  ( 4.189777606611760026E-14, 2.275000000000013678, 12.00000000000000000 ) ) ;
#21 = APPROVAL ( #8, 'UNSPECIFIED' ) ;
#22 = DIRECTION ( 'NONE',  ( -3.491481338843133355E-15, 1.224646799147353207E-16, -1.000000000000000000 ) ) ;
#23 = APPLICATION_PROTOCOL_DEFINITION ( 'international standard', 'config_control_design', 1994, #10 ) ;
#24 = COORDINATED_UNIVERSAL_TIME_OFFSET ( 1, 0, .AHEAD. ) ;
#25 = LOCAL_TIME ( 13, 56, 26.00000000000000000, #67 ) ;
#26 = DATE_TIME_ROLE ( 'creation_date' ) ;
#27 = ORIENTED_EDGE ( 'NONE', *, *, #103, .T. ) ;
#28 = MECHANICAL_CONTEXT ( 'NONE', #10, 'mechanical' ) ;
#29 = DESIGN_CONTEXT ( 'detailed design', #128, 'design' ) ;
#30 = EDGE_LOOP ( 'NONE', ( #173 ) ) ;
#31 = CARTESIAN_POINT ( 'NONE',  ( 0.0000000000000000000, 0.0000000000000000000, 0.0000000000000000000 ) ) ;
#32 = CARTESIAN_POINT ( 'NONE',  ( 4.356081741107033493E-14, -1.527907797106698421E-15, 12.47631397208147952 ) ) ;
#33 = AXIS2_PLACEMENT_3D ( 'NONE', #44, #122, #46 ) ;
#34 = FACE_OUTER_BOUND ( 'NONE', #104, .T. ) ;
#35 = VERTEX_POINT ( 'NONE', #53 ) ;
#36 = EDGE_CURVE ( 'NONE', #226, #226, #229, .T. ) ;
#37 = DIRECTION ( 'NONE',  ( 0.0000000000000000000, 1.000000000000000000, 0.0000000000000000000 ) ) ;
#38 = AXIS2_PLACEMENT_3D ( 'NONE', #31, #86, #144 ) ;
#39 = CARTESIAN_POINT ( 'NONE',  ( 4.189777606611760026E-14, 1.705976752777872198E-32, 12.00000000000000000 ) ) ;
#40 = EDGE_CURVE ( 'NONE', #52, #52, #150, .T. ) ;
#41 = AXIS2_PLACEMENT_3D ( 'NONE', #39, #15, #149 ) ;
#42 = APPROVAL_DATE_TIME ( #65, #92 ) ;
#43 = PRODUCT_RELATED_PRODUCT_CATEGORY ( 'detail', '', ( #231 ) ) ;
#44 = CARTESIAN_POINT ( 'NONE',  ( 4.189777606611760026E-14, -1.469576158976823947E-15, 12.00000000000000000 ) ) ;
#45 =( NAMED_UNIT ( * ) SI_UNIT ( $, .STERADIAN. ) SOLID_ANGLE_UNIT ( ) );
#46 = DIRECTION ( 'NONE',  ( 0.0000000000000000000, 1.000000000000000000, 0.0000000000000000000 ) ) ;
#47 = PERSON_AND_ORGANIZATION ( #18, #130 ) ;
#48 = CC_DESIGN_PERSON_AND_ORGANIZATION_ASSIGNMENT ( #197, #83, ( #237 ) ) ;
#49 = PERSON_AND_ORGANIZATION ( #18, #130 ) ;
#50 = DIRECTION ( 'NONE',  ( 0.0000000000000000000, 1.000000000000000000, 0.0000000000000000000 ) ) ;
#51 = CARTESIAN_POINT ( 'NONE',  ( 2.793185071074506684E-13, 1.199807826129472128E-32, 80.00000000000000000 ) ) ;
#52 = VERTEX_POINT ( 'NONE', #132 ) ;
#53 = CARTESIAN_POINT ( 'NONE',  ( 0.0000000000000000000, 1.875000000000013545, 0.0000000000000000000 ) ) ;
#54 = FACE_BOUND ( 'NONE', #214, .T. ) ;
#55 = ADVANCED_FACE ( 'NONE', ( #79, #138 ), #137, .T. ) ;
#56 = CARTESIAN_POINT ( 'NONE',  ( 4.356081741107033493E-14, 1.999999999999990452, 12.47631397208147952 ) ) ;
#57 = ADVANCED_FACE ( 'NONE', ( #201, #183 ), #59, .T. ) ;
#58 = AXIS2_PLACEMENT_3D ( 'NONE', #73, #14, #148 ) ;
#59 = CONICAL_SURFACE ( 'NONE', #157, 1.600000000000000977, 0.7853981633974512766 ) ;
#60 = EDGE_LOOP ( 'NONE', ( #194 ) ) ;
#61 = APPROVAL_STATUS ( 'not_yet_approved' ) ;
#62 = ADVANCED_BREP_SHAPE_REPRESENTATION ( '321681', ( #178, #101, #38 ), #134 ) ;
#63 = ORIENTED_EDGE ( 'NONE', *, *, #84, .T. ) ;
#64 = EDGE_CURVE ( 'NONE', #35, #35, #171, .T. ) ;
#65 = DATE_AND_TIME ( #160, #210 ) ;
#66 = CLOSED_SHELL ( 'NONE', ( #208, #209, #238, #139 ) ) ;
#67 = COORDINATED_UNIVERSAL_TIME_OFFSET ( 1, 0, .AHEAD. ) ;
#68 = DATE_AND_TIME ( #107, #102 ) ;
#69 = DIRECTION ( 'NONE',  ( -3.491481338843133355E-15, 1.224646799147353207E-16, -1.000000000000000000 ) ) ;
#70 = CIRCLE ( 'NONE', #223, 2.275000000000015010 ) ;
#71 = DIRECTION ( 'NONE',  ( -3.491481338843133355E-15, 1.224646799147353207E-16, -1.000000000000000000 ) ) ;
#72 = CARTESIAN_POINT ( 'NONE',  ( 1.396592535537252750E-15, -4.898587196589410610E-17, 0.3999999999999998002 ) ) ;
#73 = CARTESIAN_POINT ( 'NONE',  ( -8.017183961056855410E-31, 2.812049592491003542E-32, -2.296212748401303749E-16 ) ) ;
#74 = VERTEX_POINT ( 'NONE', #1 ) ;
#75 = CC_DESIGN_APPROVAL ( #92, ( #175 ) ) ;
#76 = AXIS2_PLACEMENT_3D ( 'NONE', #161, #162, #50 ) ;
#77 = ADVANCED_FACE ( 'NONE', ( #221 ), #111, .F. ) ;
#78 = CC_DESIGN_SECURITY_CLASSIFICATION ( #175, ( #237 ) ) ;
#79 = FACE_BOUND ( 'NONE', #158, .T. ) ;
#80 = COORDINATED_UNIVERSAL_TIME_OFFSET ( 1, 0, .AHEAD. ) ;
#81 = CIRCLE ( 'NONE', #232, 1.999999999999992228 ) ;
#82 = AXIS2_PLACEMENT_3D ( 'NONE', #135, #166, #96 ) ;
#83 = PERSON_AND_ORGANIZATION_ROLE ( 'creator' ) ;
#84 = EDGE_CURVE ( 'NONE', #114, #114, #119, .T. ) ;
#85 = EDGE_LOOP ( 'NONE', ( #63 ) ) ;
#86 = DIRECTION ( 'NONE',  ( 0.0000000000000000000, 0.0000000000000000000, 1.000000000000000000 ) ) ;
#87 = DIRECTION ( 'NONE',  ( 0.0000000000000000000, 1.000000000000000000, 0.0000000000000000000 ) ) ;
#88 = DIRECTION ( 'NONE',  ( 0.0000000000000000000, 1.000000000000000000, 0.0000000000000000000 ) ) ;
#89 = CC_DESIGN_PERSON_AND_ORGANIZATION_ASSIGNMENT ( #49, #179, ( #237 ) ) ;
#90 = CIRCLE ( 'NONE', #112, 2.275000000000015010 ) ;
#91 = DIRECTION ( 'NONE',  ( 0.0000000000000000000, 1.000000000000000000, 0.0000000000000000000 ) ) ;
#92 = APPROVAL ( #61, 'UNSPECIFIED' ) ;
#93 = CARTESIAN_POINT ( 'NONE',  ( 0.0000000000000000000, 0.0000000000000000000, 0.0000000000000000000 ) ) ;
#94 = CARTESIAN_POINT ( 'NONE',  ( 1.396592535537253737E-15, 2.275000000000015010, 0.4000000000000000777 ) ) ;
#95 = APPROVAL ( #106, 'UNSPECIFIED' ) ;
#96 = DIRECTION ( 'NONE',  ( 4.275831445896958607E-31, 1.000000000000000000, 1.224646799147353207E-16 ) ) ;
#97 = PRODUCT_DEFINITION_SHAPE ( 'NONE', 'NONE',  #241 ) ;
#98 = CARTESIAN_POINT ( 'NONE',  ( 4.189777606611760026E-14, 1.705976752777872198E-32, 12.00000000000000000 ) ) ;
#99 = VERTEX_POINT ( 'NONE', #56 ) ;
#100 = APPROVAL_PERSON_ORGANIZATION ( #47, #95, #105 ) ;
#101 = MANIFOLD_SOLID_BREP ( 'Corps-Déplacer/Copier1[2]', #66 ) ;
#102 = LOCAL_TIME ( 13, 56, 26.00000000000000000, #80 ) ;
#103 = EDGE_CURVE ( 'NONE', #207, #207, #70, .T. ) ;
#104 = EDGE_LOOP ( 'NONE', ( #198 ) ) ;
#105 = APPROVAL_ROLE ( '' ) ;
#106 = APPROVAL_STATUS ( 'not_yet_approved' ) ;
#107 = CALENDAR_DATE ( 2021, 2, 12 ) ;
#108 = APPLICATION_PROTOCOL_DEFINITION ( 'international standard', 'config_control_design', 1994, #128 ) ;
#109 = EDGE_LOOP ( 'NONE', ( #234 ) ) ;
#110 = COORDINATED_UNIVERSAL_TIME_OFFSET ( 1, 0, .AHEAD. ) ;
#111 = PLANE ( 'NONE',  #224 ) ;
#112 = AXIS2_PLACEMENT_3D ( 'NONE', #180, #11, #87 ) ;
#113 = DIRECTION ( 'NONE',  ( -4.275831445896958607E-31, -1.000000000000000000, -1.224646799147353207E-16 ) ) ;
#114 = VERTEX_POINT ( 'NONE', #94 ) ;
#115 = DIRECTION ( 'NONE',  ( 3.491481338843133355E-15, -1.224646799147353207E-16, 1.000000000000000000 ) ) ;
#116 = DIRECTION ( 'NONE',  ( 4.275831445896958607E-31, 1.000000000000000000, 1.224646799147353207E-16 ) ) ;
#117 = LOCAL_TIME ( 13, 56, 26.00000000000000000, #24 ) ;
#118 = AXIS2_PLACEMENT_3D ( 'NONE', #93, #146, #116 ) ;
#119 = CIRCLE ( 'NONE', #4, 2.275000000000015010 ) ;
#120 = CONICAL_SURFACE ( 'NONE', #58, 1.875000000000013545, 0.7853981633974498333 ) ;
#121 = AXIS2_PLACEMENT_3D ( 'NONE', #212, #22, #88 ) ;
#122 = DIRECTION ( 'NONE',  ( -3.491481338843133355E-15, 1.224646799147353207E-16, -1.000000000000000000 ) ) ;
#123 = PERSON_AND_ORGANIZATION ( #18, #130 ) ;
#124 = EDGE_LOOP ( 'NONE', ( #218 ) ) ;
#125 = EDGE_LOOP ( 'NONE', ( #236 ) ) ;
#126 = EDGE_LOOP ( 'NONE', ( #140 ) ) ;
#127 = PERSON_AND_ORGANIZATION_ROLE ( 'classification_officer' ) ;
#128 = APPLICATION_CONTEXT ( 'configuration controlled 3d designs of mechanical parts and assemblies' ) ;
#129 = CYLINDRICAL_SURFACE ( 'NONE', #215, 2.275000000000015010 ) ;
#130 = ORGANIZATION ( 'UNSPECIFIED', 'UNSPECIFIED', '' ) ;
#131 = FACE_OUTER_BOUND ( 'NONE', #235, .T. ) ;
#132 = CARTESIAN_POINT ( 'NONE',  ( 2.793185071074506684E-13, 1.599999999999991207, 80.00000000000000000 ) ) ;
#133 = CARTESIAN_POINT ( 'NONE',  ( 2.779219145719134403E-13, 1.999999999999991340, 79.60000000000000853 ) ) ;
#134 =( GEOMETRIC_REPRESENTATION_CONTEXT ( 3 ) GLOBAL_UNCERTAINTY_ASSIGNED_CONTEXT ( ( #217 ) ) GLOBAL_UNIT_ASSIGNED_CONTEXT ( ( #152, #170, #45 ) ) REPRESENTATION_CONTEXT ( 'NONE', 'WORKASPACE' ) );
#135 = CARTESIAN_POINT ( 'NONE',  ( -8.017183961056855410E-31, 2.812049592491003542E-32, -2.296212748401303749E-16 ) ) ;
#136 = CC_DESIGN_DATE_AND_TIME_ASSIGNMENT ( #142, #26, ( #241 ) ) ;
#137 = CONICAL_SURFACE ( 'NONE', #33, 2.275000000000015010, 0.5235987755983005920 ) ;
#138 = FACE_OUTER_BOUND ( 'NONE', #124, .T. ) ;
#139 = ADVANCED_FACE ( 'NONE', ( #243, #54 ), #120, .T. ) ;
#140 = ORIENTED_EDGE ( 'NONE', *, *, #40, .T. ) ;
#141 = PERSON_AND_ORGANIZATION ( #18, #130 ) ;
#142 = DATE_AND_TIME ( #216, #25 ) ;
#143 = ORIENTED_EDGE ( 'NONE', *, *, #153, .F. ) ;
#144 = DIRECTION ( 'NONE',  ( 1.000000000000000000, 0.0000000000000000000, 0.0000000000000000000 ) ) ;
#145 = CARTESIAN_POINT ( 'NONE',  ( 0.0000000000000000000, 0.0000000000000000000, 0.0000000000000000000 ) ) ;
#146 = DIRECTION ( 'NONE',  ( -3.491481338843133355E-15, 1.224646799147353207E-16, -1.000000000000000000 ) ) ;
#147 = DIRECTION ( 'NONE',  ( -3.491481338843133355E-15, 1.224646799147353207E-16, -1.000000000000000000 ) ) ;
#148 = DIRECTION ( 'NONE',  ( -4.275831445896958607E-31, -1.000000000000000000, -1.224646799147353207E-16 ) ) ;
#149 = DIRECTION ( 'NONE',  ( -4.275831445896958607E-31, -1.000000000000000000, -1.224646799147353207E-16 ) ) ;
#150 = CIRCLE ( 'NONE', #76, 1.600000000000000977 ) ;
#151 = CC_DESIGN_PERSON_AND_ORGANIZATION_ASSIGNMENT ( #123, #193, ( #241 ) ) ;
#152 =( LENGTH_UNIT ( ) NAMED_UNIT ( * ) SI_UNIT ( .MILLI., .METRE. ) );
#153 = EDGE_CURVE ( 'NONE', #99, #99, #81, .T. ) ;
#154 = CC_DESIGN_PERSON_AND_ORGANIZATION_ASSIGNMENT ( #176, #127, ( #175 ) ) ;
#155 = ORIENTED_EDGE ( 'NONE', *, *, #64, .F. ) ;
#156 = CALENDAR_DATE ( 2021, 2, 12 ) ;
#157 = AXIS2_PLACEMENT_3D ( 'NONE', #240, #69, #37 ) ;
#158 = EDGE_LOOP ( 'NONE', ( #9 ) ) ;
#159 = ORIENTED_EDGE ( 'NONE', *, *, #103, .F. ) ;
#160 = CALENDAR_DATE ( 2021, 2, 12 ) ;
#161 = CARTESIAN_POINT ( 'NONE',  ( 2.793185071074506684E-13, -9.797174393178826052E-15, 80.00000000000000000 ) ) ;
#162 = DIRECTION ( 'NONE',  ( -3.491481338843133355E-15, 1.224646799147353207E-16, -1.000000000000000000 ) ) ;
#163 = SHAPE_DEFINITION_REPRESENTATION ( #97, #62 ) ;
#164 = DIRECTION ( 'NONE',  ( 4.232813064587303808E-31, 1.000000000000000000, 1.191430958775271790E-16 ) ) ;
#165 = DIRECTION ( 'NONE',  ( -3.491481338843133355E-15, 1.224646799147353207E-16, -1.000000000000000000 ) ) ;
#166 = DIRECTION ( 'NONE',  ( -3.491481338843133355E-15, 1.224646799147353207E-16, -1.000000000000000000 ) ) ;
#167 = DIRECTION ( 'NONE',  ( 0.0000000000000000000, 1.000000000000000000, 0.0000000000000000000 ) ) ;
#168 = FACE_OUTER_BOUND ( 'NONE', #30, .T. ) ;
#169 = ADVANCED_FACE ( 'NONE', ( #34 ), #203, .F. ) ;
#170 =( NAMED_UNIT ( * ) PLANE_ANGLE_UNIT ( ) SI_UNIT ( $, .RADIAN. ) );
#171 = CIRCLE ( 'NONE', #82, 1.875000000000013545 ) ;
#172 = APPROVAL_PERSON_ORGANIZATION ( #233, #92, #177 ) ;
#173 = ORIENTED_EDGE ( 'NONE', *, *, #64, .T. ) ;
#174 = DATE_AND_TIME ( #192, #117 ) ;
#175 = SECURITY_CLASSIFICATION ( '', '', #199 ) ;
#176 = PERSON_AND_ORGANIZATION ( #18, #130 ) ;
#177 = APPROVAL_ROLE ( '' ) ;
#178 = MANIFOLD_SOLID_BREP ( 'Corps-Déplacer/Copier1[1]', #205 ) ;
#179 = PERSON_AND_ORGANIZATION_ROLE ( 'design_supplier' ) ;
#180 = CARTESIAN_POINT ( 'NONE',  ( 4.189777606611760026E-14, -1.469576158976823947E-15, 12.00000000000000000 ) ) ;
#181 = DATE_AND_TIME ( #156, #182 ) ;
#182 = LOCAL_TIME ( 13, 56, 26.00000000000000000, #110 ) ;
#183 = FACE_BOUND ( 'NONE', #126, .T. ) ;
#184 = CC_DESIGN_DATE_AND_TIME_ASSIGNMENT ( #181, #5, ( #175 ) ) ;
#185 = CYLINDRICAL_SURFACE ( 'NONE', #118, 1.999999999999996669 ) ;
#186 = DIRECTION ( 'NONE',  ( -3.491481338843133355E-15, 1.224646799147353207E-16, -1.000000000000000000 ) ) ;
#187 = CC_DESIGN_APPROVAL ( #95, ( #237 ) ) ;
#188 = CARTESIAN_POINT ( 'NONE',  ( -4.008591980528427705E-31, 1.406024796245501771E-32, -1.148106374200651875E-16 ) ) ;
#189 = PLANE ( 'NONE',  #16 ) ;
#190 = CC_DESIGN_PERSON_AND_ORGANIZATION_ASSIGNMENT ( #141, #211, ( #231 ) ) ;
#191 = EDGE_LOOP ( 'NONE', ( #7 ) ) ;
#192 = CALENDAR_DATE ( 2021, 2, 12 ) ;
#193 = PERSON_AND_ORGANIZATION_ROLE ( 'creator' ) ;
#194 = ORIENTED_EDGE ( 'NONE', *, *, #40, .F. ) ;
#195 = PERSON_AND_ORGANIZATION ( #18, #130 ) ;
#196 = EDGE_LOOP ( 'NONE', ( #143 ) ) ;
#197 = PERSON_AND_ORGANIZATION ( #18, #130 ) ;
#198 = ORIENTED_EDGE ( 'NONE', *, *, #6, .T. ) ;
#199 = SECURITY_CLASSIFICATION_LEVEL ( 'unclassified' ) ;
#200 = DIRECTION ( 'NONE',  ( 4.275831445896958607E-31, 1.000000000000000000, 1.224646799147353207E-16 ) ) ;
#201 = FACE_OUTER_BOUND ( 'NONE', #125, .T. ) ;
#202 = FACE_OUTER_BOUND ( 'NONE', #196, .T. ) ;
#203 = PLANE ( 'NONE',  #41 ) ;
#204 = AXIS2_PLACEMENT_3D ( 'NONE', #98, #115, #113 ) ;
#205 = CLOSED_SHELL ( 'NONE', ( #169, #55, #227, #57, #77 ) ) ;
#206 = PLANE ( 'NONE',  #204 ) ;
#207 = VERTEX_POINT ( 'NONE', #20 ) ;
#208 = ADVANCED_FACE ( 'NONE', ( #19, #239 ), #129, .T. ) ;
#209 = ADVANCED_FACE ( 'NONE', ( #131 ), #206, .T. ) ;
#210 = LOCAL_TIME ( 13, 56, 26.00000000000000000, #12 ) ;
#211 = PERSON_AND_ORGANIZATION_ROLE ( 'design_owner' ) ;
#212 = CARTESIAN_POINT ( 'NONE',  ( 2.779219145719134403E-13, -9.748188521212932624E-15, 79.60000000000000853 ) ) ;
#213 = APPROVAL_DATE_TIME ( #174, #21 ) ;
#214 = EDGE_LOOP ( 'NONE', ( #155 ) ) ;
#215 = AXIS2_PLACEMENT_3D ( 'NONE', #145, #71, #228 ) ;
#216 = CALENDAR_DATE ( 2021, 2, 12 ) ;
#217 = UNCERTAINTY_MEASURE_WITH_UNIT (LENGTH_MEASURE( 1.000000000000000082E-05 ), #152, 'distance_accuracy_value', 'NONE');
#218 = ORIENTED_EDGE ( 'NONE', *, *, #6, .F. ) ;
#219 = APPROVAL_DATE_TIME ( #68, #95 ) ;
#220 = EDGE_LOOP ( 'NONE', ( #27 ) ) ;
#221 = FACE_OUTER_BOUND ( 'NONE', #60, .T. ) ;
#222 = APPROVAL_PERSON_ORGANIZATION ( #195, #21, #2 ) ;
#223 = AXIS2_PLACEMENT_3D ( 'NONE', #230, #165, #167 ) ;
#224 = AXIS2_PLACEMENT_3D ( 'NONE', #51, #186, #200 ) ;
#225 = DIRECTION ( 'NONE',  ( 4.275831445896958607E-31, 1.000000000000000000, 1.224646799147353207E-16 ) ) ;
#226 = VERTEX_POINT ( 'NONE', #133 ) ;
#227 = ADVANCED_FACE ( 'NONE', ( #202, #242 ), #185, .T. ) ;
#228 = DIRECTION ( 'NONE',  ( 4.275831445896958607E-31, 1.000000000000000000, 1.224646799147353207E-16 ) ) ;
#229 = CIRCLE ( 'NONE', #121, 2.000000000000000888 ) ;
#230 = CARTESIAN_POINT ( 'NONE',  ( 4.189777606611760026E-14, -1.469576158976823947E-15, 12.00000000000000000 ) ) ;
#231 = PRODUCT ( '321681', '321681', '', ( #28 ) ) ;
#232 = AXIS2_PLACEMENT_3D ( 'NONE', #32, #13, #91 ) ;
#233 = PERSON_AND_ORGANIZATION ( #18, #130 ) ;
#234 = ORIENTED_EDGE ( 'NONE', *, *, #36, .T. ) ;
#235 = EDGE_LOOP ( 'NONE', ( #159 ) ) ;
#236 = ORIENTED_EDGE ( 'NONE', *, *, #36, .F. ) ;
#237 = PRODUCT_DEFINITION_FORMATION_WITH_SPECIFIED_SOURCE ( 'ANY', '', #231, .NOT_KNOWN. ) ;
#238 = ADVANCED_FACE ( 'NONE', ( #168 ), #189, .T. ) ;
#239 = FACE_OUTER_BOUND ( 'NONE', #191, .T. ) ;
#240 = CARTESIAN_POINT ( 'NONE',  ( 2.793185071074506684E-13, -9.797174393178826052E-15, 80.00000000000000000 ) ) ;
#241 = PRODUCT_DEFINITION ( 'UNKNOWN', '', #237, #29 ) ;
#242 = FACE_OUTER_BOUND ( 'NONE', #109, .T. ) ;
#243 = FACE_OUTER_BOUND ( 'NONE', #85, .T. ) ;
ENDSEC;
END-ISO-10303-21;
