ISO-10303-21;
HEADER;
FILE_DESCRIPTION (( 'STEP AP203' ),
    '1' );
FILE_NAME ('321680.step',
    '2021-12-02T12:56:25',
    ( '' ),
    ( '' ),
    'SwSTEP 2.0',
    'SolidWorks 2019',
    '' );
FILE_SCHEMA (( 'CONFIG_CONTROL_DESIGN' ));
ENDSEC;

DATA;
#1 = DIRECTION ( 'NONE',  ( -3.491481338843133355E-15, 1.224646799147353207E-16, -1.000000000000000000 ) ) ;
#2 = CC_DESIGN_APPROVAL ( #45, ( #139 ) ) ;
#3 = CC_DESIGN_APPROVAL ( #58, ( #231 ) ) ;
#4 = PERSON_AND_ORGANIZATION_ROLE ( 'creator' ) ;
#5 = PERSON_AND_ORGANIZATION ( #198, #86 ) ;
#6 = CIRCLE ( 'NONE', #215, 2.270000000000015117 ) ;
#7 = PERSON_AND_ORGANIZATION_ROLE ( 'design_owner' ) ;
#8 = ORIENTED_EDGE ( 'NONE', *, *, #210, .F. ) ;
#9 = AXIS2_PLACEMENT_3D ( 'NONE', #201, #95, #35 ) ;
#10 = EDGE_LOOP ( 'NONE', ( #29 ) ) ;
#11 = ADVANCED_FACE ( 'NONE', ( #197 ), #180, .F. ) ;
#12 = ADVANCED_BREP_SHAPE_REPRESENTATION ( '321680', ( #52, #219, #103 ), #174 ) ;
#13 = APPLICATION_CONTEXT ( 'configuration controlled 3d designs of mechanical parts and assemblies' ) ;
#14 = EDGE_LOOP ( 'NONE', ( #159 ) ) ;
#15 = APPROVAL_PERSON_ORGANIZATION ( #135, #58, #207 ) ;
#16 = DIRECTION ( 'NONE',  ( -3.491481338843133355E-15, 1.224646799147353207E-16, -1.000000000000000000 ) ) ;
#17 = CARTESIAN_POINT ( 'NONE',  ( 4.189777606611760026E-14, 2.270000000000013785, 12.00000000000000000 ) ) ;
#18 = CC_DESIGN_PERSON_AND_ORGANIZATION_ASSIGNMENT ( #24, #136, ( #231 ) ) ;
#19 = CARTESIAN_POINT ( 'NONE',  ( 4.189777606611760026E-14, 1.702227353321217800E-32, 12.00000000000000000 ) ) ;
#20 = VERTEX_POINT ( 'NONE', #167 ) ;
#21 = DIRECTION ( 'NONE',  ( 4.242136441381548307E-31, 1.000000000000000000, 1.194055256041296431E-16 ) ) ;
#22 = DATE_AND_TIME ( #119, #160 ) ;
#23 = CLOSED_SHELL ( 'NONE', ( #114, #125, #55, #169, #11 ) ) ;
#24 = PERSON_AND_ORGANIZATION ( #198, #86 ) ;
#25 = EDGE_CURVE ( 'NONE', #204, #204, #81, .T. ) ;
#26 = APPROVAL_STATUS ( 'not_yet_approved' ) ;
#27 = AXIS2_PLACEMENT_3D ( 'NONE', #37, #1, #226 ) ;
#28 = ORIENTED_EDGE ( 'NONE', *, *, #94, .T. ) ;
#29 = ORIENTED_EDGE ( 'NONE', *, *, #147, .T. ) ;
#30 = CIRCLE ( 'NONE', #27, 2.270000000000015117 ) ;
#31 = AXIS2_PLACEMENT_3D ( 'NONE', #115, #16, #205 ) ;
#32 = CARTESIAN_POINT ( 'NONE',  ( -7.995804803827370696E-31, 2.804550793577694746E-32, -2.290089514405567367E-16 ) ) ;
#33 = DIRECTION ( 'NONE',  ( -3.491481338843133355E-15, 1.224646799147353207E-16, -1.000000000000000000 ) ) ;
#34 = APPROVAL ( #41, 'UNSPECIFIED' ) ;
#35 = DIRECTION ( 'NONE',  ( 4.275831445896958607E-31, 1.000000000000000000, 1.224646799147353207E-16 ) ) ;
#36 = PLANE ( 'NONE',  #122 ) ;
#37 = CARTESIAN_POINT ( 'NONE',  ( 4.189777606611760026E-14, -1.469576158976823947E-15, 12.00000000000000000 ) ) ;
#38 = CALENDAR_DATE ( 2021, 2, 12 ) ;
#39 = CARTESIAN_POINT ( 'NONE',  ( 0.0000000000000000000, 0.0000000000000000000, 0.0000000000000000000 ) ) ;
#40 = COORDINATED_UNIVERSAL_TIME_OFFSET ( 1, 0, .AHEAD. ) ;
#41 = APPROVAL_STATUS ( 'not_yet_approved' ) ;
#42 = EDGE_LOOP ( 'NONE', ( #64 ) ) ;
#43 = APPROVAL_STATUS ( 'not_yet_approved' ) ;
#44 = ORIENTED_EDGE ( 'NONE', *, *, #213, .F. ) ;
#45 = APPROVAL ( #43, 'UNSPECIFIED' ) ;
#46 = EDGE_LOOP ( 'NONE', ( #232 ) ) ;
#47 = AXIS2_PLACEMENT_3D ( 'NONE', #68, #143, #178 ) ;
#48 = DIRECTION ( 'NONE',  ( 3.491481338843133355E-15, -1.224646799147353207E-16, 1.000000000000000000 ) ) ;
#49 = CC_DESIGN_APPROVAL ( #34, ( #151 ) ) ;
#50 = DIRECTION ( 'NONE',  ( -4.275831445896958607E-31, -1.000000000000000000, -1.224646799147353207E-16 ) ) ;
#51 = DIRECTION ( 'NONE',  ( -3.491481338843133355E-15, 1.224646799147353207E-16, -1.000000000000000000 ) ) ;
#52 = MANIFOLD_SOLID_BREP ( 'Corps-Déplacer/Copier1[1]', #23 ) ;
#53 = DIRECTION ( 'NONE',  ( 4.275831445896958607E-31, 1.000000000000000000, 1.224646799147353207E-16 ) ) ;
#54 = AXIS2_PLACEMENT_3D ( 'NONE', #224, #111, #50 ) ;
#55 = ADVANCED_FACE ( 'NONE', ( #195, #105 ), #134, .T. ) ;
#56 = VERTEX_POINT ( 'NONE', #92 ) ;
#57 = DATE_AND_TIME ( #152, #132 ) ;
#58 = APPROVAL ( #26, 'UNSPECIFIED' ) ;
#59 = COORDINATED_UNIVERSAL_TIME_OFFSET ( 1, 0, .AHEAD. ) ;
#60 = APPROVAL_DATE_TIME ( #22, #34 ) ;
#61 = VERTEX_POINT ( 'NONE', #191 ) ;
#62 = CC_DESIGN_PERSON_AND_ORGANIZATION_ASSIGNMENT ( #171, #4, ( #151 ) ) ;
#63 = CIRCLE ( 'NONE', #235, 1.999999999999992228 ) ;
#64 = ORIENTED_EDGE ( 'NONE', *, *, #25, .F. ) ;
#65 = CC_DESIGN_PERSON_AND_ORGANIZATION_ASSIGNMENT ( #5, #154, ( #139 ) ) ;
#66 = AXIS2_PLACEMENT_3D ( 'NONE', #32, #48, #165 ) ;
#67 = EDGE_LOOP ( 'NONE', ( #199 ) ) ;
#68 = CARTESIAN_POINT ( 'NONE',  ( 4.189777606611760026E-14, -1.469576158976823947E-15, 12.00000000000000000 ) ) ;
#69 = CARTESIAN_POINT ( 'NONE',  ( 1.396592535537252356E-15, -4.898587196589408761E-17, 0.3999999999999996891 ) ) ;
#70 = FACE_BOUND ( 'NONE', #88, .T. ) ;
#71 = PRODUCT_RELATED_PRODUCT_CATEGORY ( 'detail', '', ( #230 ) ) ;
#72 = APPLICATION_CONTEXT ( 'configuration controlled 3d designs of mechanical parts and assemblies' ) ;
#73 = DIRECTION ( 'NONE',  ( -3.491481338843133355E-15, 1.224646799147353207E-16, -1.000000000000000000 ) ) ;
#74 = DIRECTION ( 'NONE',  ( -4.275831445896958607E-31, -1.000000000000000000, -1.224646799147353207E-16 ) ) ;
#75 = FACE_BOUND ( 'NONE', #67, .T. ) ;
#76 = CLOSED_SHELL ( 'NONE', ( #216, #196, #238, #79 ) ) ;
#77 = COORDINATED_UNIVERSAL_TIME_OFFSET ( 1, 0, .AHEAD. ) ;
#78 = DATE_AND_TIME ( #38, #149 ) ;
#79 = ADVANCED_FACE ( 'NONE', ( #227, #70 ), #109, .T. ) ;
#80 = VERTEX_POINT ( 'NONE', #82 ) ;
#81 = CIRCLE ( 'NONE', #47, 2.270000000000015117 ) ;
#82 = CARTESIAN_POINT ( 'NONE',  ( 2.793185071074506684E-13, 1.599999999999991207, 80.00000000000000000 ) ) ;
#83 = CALENDAR_DATE ( 2021, 2, 12 ) ;
#84 = EDGE_LOOP ( 'NONE', ( #221 ) ) ;
#85 = CIRCLE ( 'NONE', #162, 1.870000000000013873 ) ;
#86 = ORGANIZATION ( 'UNSPECIFIED', 'UNSPECIFIED', '' ) ;
#87 = EDGE_LOOP ( 'NONE', ( #237 ) ) ;
#88 = EDGE_LOOP ( 'NONE', ( #8 ) ) ;
#89 = CIRCLE ( 'NONE', #183, 2.000000000000000888 ) ;
#90 = EDGE_LOOP ( 'NONE', ( #126 ) ) ;
#91 = CYLINDRICAL_SURFACE ( 'NONE', #194, 2.270000000000015117 ) ;
#92 = CARTESIAN_POINT ( 'NONE',  ( 4.189777606611760026E-14, 2.270000000000013785, 12.00000000000000000 ) ) ;
#93 = DIRECTION ( 'NONE',  ( -3.491481338843133355E-15, 1.224646799147353207E-16, -1.000000000000000000 ) ) ;
#94 = EDGE_CURVE ( 'NONE', #20, #20, #89, .T. ) ;
#95 = DIRECTION ( 'NONE',  ( -3.491481338843133355E-15, 1.224646799147353207E-16, -1.000000000000000000 ) ) ;
#96 = DIRECTION ( 'NONE',  ( -3.491481338843133355E-15, 1.224646799147353207E-16, -1.000000000000000000 ) ) ;
#97 = APPROVAL_PERSON_ORGANIZATION ( #229, #34, #209 ) ;
#98 = APPLICATION_PROTOCOL_DEFINITION ( 'international standard', 'config_control_design', 1994, #13 ) ;
#99 = LOCAL_TIME ( 13, 56, 25.00000000000000000, #137 ) ;
#100 = MECHANICAL_CONTEXT ( 'NONE', #72, 'mechanical' ) ;
#101 = PERSON_AND_ORGANIZATION ( #198, #86 ) ;
#102 = CALENDAR_DATE ( 2021, 2, 12 ) ;
#103 = AXIS2_PLACEMENT_3D ( 'NONE', #39, #155, #123 ) ;
#104 =( NAMED_UNIT ( * ) SI_UNIT ( $, .STERADIAN. ) SOLID_ANGLE_UNIT ( ) );
#105 = FACE_OUTER_BOUND ( 'NONE', #234, .T. ) ;
#106 = APPROVAL_ROLE ( '' ) ;
#107 = EDGE_LOOP ( 'NONE', ( #161 ) ) ;
#108 = DATE_AND_TIME ( #102, #99 ) ;
#109 = CONICAL_SURFACE ( 'NONE', #66, 1.870000000000013873, 0.7853981633974500554 ) ;
#110 = CARTESIAN_POINT ( 'NONE',  ( 4.189777606611760026E-14, -1.469576158976823947E-15, 12.00000000000000000 ) ) ;
#111 = DIRECTION ( 'NONE',  ( 3.491481338843133355E-15, -1.224646799147353207E-16, 1.000000000000000000 ) ) ;
#112 = CIRCLE ( 'NONE', #144, 1.600000000000000977 ) ;
#113 = PLANE ( 'NONE',  #138 ) ;
#114 = ADVANCED_FACE ( 'NONE', ( #206 ), #113, .F. ) ;
#115 = CARTESIAN_POINT ( 'NONE',  ( 2.793185071074506684E-13, 1.199807826129472128E-32, 80.00000000000000000 ) ) ;
#116 = FACE_OUTER_BOUND ( 'NONE', #177, .T. ) ;
#117 = DIRECTION ( 'NONE',  ( 3.491481338843133355E-15, -1.224646799147353207E-16, 1.000000000000000000 ) ) ;
#118 = APPROVAL_DATE_TIME ( #78, #58 ) ;
#119 = CALENDAR_DATE ( 2021, 2, 12 ) ;
#120 = CARTESIAN_POINT ( 'NONE',  ( 4.353058029570756620E-14, 1.999999999999990452, 12.46765371804363554 ) ) ;
#121 =( NAMED_UNIT ( * ) PLANE_ANGLE_UNIT ( ) SI_UNIT ( $, .RADIAN. ) );
#122 = AXIS2_PLACEMENT_3D ( 'NONE', #142, #51, #129 ) ;
#123 = DIRECTION ( 'NONE',  ( 1.000000000000000000, 0.0000000000000000000, 0.0000000000000000000 ) ) ;
#124 = ORIENTED_EDGE ( 'NONE', *, *, #147, .F. ) ;
#125 = ADVANCED_FACE ( 'NONE', ( #240, #168 ), #189, .T. ) ;
#126 = ORIENTED_EDGE ( 'NONE', *, *, #181, .F. ) ;
#127 = PRODUCT_DEFINITION_SHAPE ( 'NONE', 'NONE',  #151 ) ;
#128 = CC_DESIGN_SECURITY_CLASSIFICATION ( #139, ( #231 ) ) ;
#129 = DIRECTION ( 'NONE',  ( 4.275831445896958607E-31, 1.000000000000000000, 1.224646799147353207E-16 ) ) ;
#130 = DIRECTION ( 'NONE',  ( 4.275831445896957731E-31, 1.000000000000000000, 1.224646799147353207E-16 ) ) ;
#131 = FACE_OUTER_BOUND ( 'NONE', #107, .T. ) ;
#132 = LOCAL_TIME ( 13, 56, 25.00000000000000000, #77 ) ;
#133 = CARTESIAN_POINT ( 'NONE',  ( 4.353058029570756620E-14, -1.526847221867973574E-15, 12.46765371804363554 ) ) ;
#134 = CYLINDRICAL_SURFACE ( 'NONE', #9, 1.999999999999996669 ) ;
#135 = PERSON_AND_ORGANIZATION ( #198, #86 ) ;
#136 = PERSON_AND_ORGANIZATION_ROLE ( 'creator' ) ;
#137 = COORDINATED_UNIVERSAL_TIME_OFFSET ( 1, 0, .AHEAD. ) ;
#138 = AXIS2_PLACEMENT_3D ( 'NONE', #19, #117, #74 ) ;
#139 = SECURITY_CLASSIFICATION ( '', '', #211 ) ;
#140 = DATE_TIME_ROLE ( 'classification_date' ) ;
#141 = UNCERTAINTY_MEASURE_WITH_UNIT (LENGTH_MEASURE( 1.000000000000000082E-05 ), #193, 'distance_accuracy_value', 'NONE');
#142 = CARTESIAN_POINT ( 'NONE',  ( -3.997902401913685348E-31, 1.402275396788847373E-32, -1.145044757202783683E-16 ) ) ;
#143 = DIRECTION ( 'NONE',  ( -3.491481338843133355E-15, 1.224646799147353207E-16, -1.000000000000000000 ) ) ;
#144 = AXIS2_PLACEMENT_3D ( 'NONE', #166, #150, #186 ) ;
#145 = FACE_OUTER_BOUND ( 'NONE', #200, .T. ) ;
#146 = DIRECTION ( 'NONE',  ( 0.0000000000000000000, 1.000000000000000000, 0.0000000000000000000 ) ) ;
#147 = EDGE_CURVE ( 'NONE', #56, #56, #30, .T. ) ;
#148 = FACE_OUTER_BOUND ( 'NONE', #42, .T. ) ;
#149 = LOCAL_TIME ( 13, 56, 25.00000000000000000, #59 ) ;
#150 = DIRECTION ( 'NONE',  ( -3.491481338843133355E-15, 1.224646799147353207E-16, -1.000000000000000000 ) ) ;
#151 = PRODUCT_DEFINITION ( 'UNKNOWN', '', #231, #176 ) ;
#152 = CALENDAR_DATE ( 2021, 2, 12 ) ;
#153 = CC_DESIGN_PERSON_AND_ORGANIZATION_ASSIGNMENT ( #214, #7, ( #230 ) ) ;
#154 = PERSON_AND_ORGANIZATION_ROLE ( 'classification_officer' ) ;
#155 = DIRECTION ( 'NONE',  ( 0.0000000000000000000, 0.0000000000000000000, 1.000000000000000000 ) ) ;
#156 = VERTEX_POINT ( 'NONE', #120 ) ;
#157 = SHAPE_DEFINITION_REPRESENTATION ( #127, #12 ) ;
#158 = CONICAL_SURFACE ( 'NONE', #170, 1.600000000000000977, 0.7853981633974512766 ) ;
#159 = ORIENTED_EDGE ( 'NONE', *, *, #210, .T. ) ;
#160 = LOCAL_TIME ( 13, 56, 25.00000000000000000, #40 ) ;
#161 = ORIENTED_EDGE ( 'NONE', *, *, #25, .T. ) ;
#162 = AXIS2_PLACEMENT_3D ( 'NONE', #184, #188, #130 ) ;
#163 = ORIENTED_EDGE ( 'NONE', *, *, #94, .F. ) ;
#164 = CARTESIAN_POINT ( 'NONE',  ( 2.779219145719134403E-13, -9.748188521212932624E-15, 79.60000000000000853 ) ) ;
#165 = DIRECTION ( 'NONE',  ( -4.275831445896957731E-31, -1.000000000000000000, -1.224646799147353207E-16 ) ) ;
#166 = CARTESIAN_POINT ( 'NONE',  ( 2.793185071074506684E-13, -9.797174393178826052E-15, 80.00000000000000000 ) ) ;
#167 = CARTESIAN_POINT ( 'NONE',  ( 2.779219145719134403E-13, 1.999999999999991340, 79.60000000000000853 ) ) ;
#168 = FACE_OUTER_BOUND ( 'NONE', #218, .T. ) ;
#169 = ADVANCED_FACE ( 'NONE', ( #145, #75 ), #158, .T. ) ;
#170 = AXIS2_PLACEMENT_3D ( 'NONE', #239, #243, #222 ) ;
#171 = PERSON_AND_ORGANIZATION ( #198, #86 ) ;
#172 = DATE_TIME_ROLE ( 'creation_date' ) ;
#173 = PERSON_AND_ORGANIZATION_ROLE ( 'design_supplier' ) ;
#174 =( GEOMETRIC_REPRESENTATION_CONTEXT ( 3 ) GLOBAL_UNCERTAINTY_ASSIGNED_CONTEXT ( ( #141 ) ) GLOBAL_UNIT_ASSIGNED_CONTEXT ( ( #193, #121, #104 ) ) REPRESENTATION_CONTEXT ( 'NONE', 'WORKASPACE' ) );
#175 = APPLICATION_PROTOCOL_DEFINITION ( 'international standard', 'config_control_design', 1994, #72 ) ;
#176 = DESIGN_CONTEXT ( 'detailed design', #13, 'design' ) ;
#177 = EDGE_LOOP ( 'NONE', ( #44 ) ) ;
#178 = DIRECTION ( 'NONE',  ( 0.0000000000000000000, 1.000000000000000000, 0.0000000000000000000 ) ) ;
#179 = DATE_AND_TIME ( #83, #208 ) ;
#180 = PLANE ( 'NONE',  #31 ) ;
#181 = EDGE_CURVE ( 'NONE', #80, #80, #112, .T. ) ;
#182 = APPROVAL_DATE_TIME ( #179, #45 ) ;
#183 = AXIS2_PLACEMENT_3D ( 'NONE', #164, #33, #202 ) ;
#184 = CARTESIAN_POINT ( 'NONE',  ( -7.995804803827370696E-31, 2.804550793577694746E-32, -2.290089514405567367E-16 ) ) ;
#185 = DIRECTION ( 'NONE',  ( 0.0000000000000000000, 1.000000000000000000, 0.0000000000000000000 ) ) ;
#186 = DIRECTION ( 'NONE',  ( 0.0000000000000000000, 1.000000000000000000, 0.0000000000000000000 ) ) ;
#187 = CARTESIAN_POINT ( 'NONE',  ( 0.0000000000000000000, 0.0000000000000000000, 0.0000000000000000000 ) ) ;
#188 = DIRECTION ( 'NONE',  ( -3.491481338843133355E-15, 1.224646799147353207E-16, -1.000000000000000000 ) ) ;
#189 = CONICAL_SURFACE ( 'NONE', #220, 2.270000000000015117, 0.5235987755983000369 ) ;
#190 = APPROVAL_PERSON_ORGANIZATION ( #217, #45, #106 ) ;
#191 = CARTESIAN_POINT ( 'NONE',  ( 1.396592535537253342E-15, 2.270000000000015117, 0.3999999999999999667 ) ) ;
#192 = EDGE_CURVE ( 'NONE', #156, #156, #63, .T. ) ;
#193 =( LENGTH_UNIT ( ) NAMED_UNIT ( * ) SI_UNIT ( .MILLI., .METRE. ) );
#194 = AXIS2_PLACEMENT_3D ( 'NONE', #187, #73, #53 ) ;
#195 = FACE_OUTER_BOUND ( 'NONE', #46, .T. ) ;
#196 = ADVANCED_FACE ( 'NONE', ( #148 ), #223, .T. ) ;
#197 = FACE_OUTER_BOUND ( 'NONE', #90, .T. ) ;
#198 = PERSON ( 'UNSPECIFIED', 'UNSPECIFIED', 'UNSPECIFIED', ('UNSPECIFIED'), ('UNSPECIFIED'), ('UNSPECIFIED') ) ;
#199 = ORIENTED_EDGE ( 'NONE', *, *, #181, .T. ) ;
#200 = EDGE_LOOP ( 'NONE', ( #163 ) ) ;
#201 = CARTESIAN_POINT ( 'NONE',  ( 0.0000000000000000000, 0.0000000000000000000, 0.0000000000000000000 ) ) ;
#202 = DIRECTION ( 'NONE',  ( 0.0000000000000000000, 1.000000000000000000, 0.0000000000000000000 ) ) ;
#203 = FACE_OUTER_BOUND ( 'NONE', #14, .T. ) ;
#204 = VERTEX_POINT ( 'NONE', #17 ) ;
#205 = DIRECTION ( 'NONE',  ( 4.275831445896958607E-31, 1.000000000000000000, 1.224646799147353207E-16 ) ) ;
#206 = FACE_OUTER_BOUND ( 'NONE', #10, .T. ) ;
#207 = APPROVAL_ROLE ( '' ) ;
#208 = LOCAL_TIME ( 13, 56, 25.00000000000000000, #236 ) ;
#209 = APPROVAL_ROLE ( '' ) ;
#210 = EDGE_CURVE ( 'NONE', #228, #228, #85, .T. ) ;
#211 = SECURITY_CLASSIFICATION_LEVEL ( 'unclassified' ) ;
#212 = CARTESIAN_POINT ( 'NONE',  ( 0.0000000000000000000, 1.870000000000013873, 0.0000000000000000000 ) ) ;
#213 = EDGE_CURVE ( 'NONE', #61, #61, #6, .T. ) ;
#214 = PERSON_AND_ORGANIZATION ( #198, #86 ) ;
#215 = AXIS2_PLACEMENT_3D ( 'NONE', #69, #242, #21 ) ;
#216 = ADVANCED_FACE ( 'NONE', ( #131, #116 ), #91, .T. ) ;
#217 = PERSON_AND_ORGANIZATION ( #198, #86 ) ;
#218 = EDGE_LOOP ( 'NONE', ( #124 ) ) ;
#219 = MANIFOLD_SOLID_BREP ( 'Corps-Déplacer/Copier1[2]', #76 ) ;
#220 = AXIS2_PLACEMENT_3D ( 'NONE', #110, #96, #146 ) ;
#221 = ORIENTED_EDGE ( 'NONE', *, *, #213, .T. ) ;
#222 = DIRECTION ( 'NONE',  ( 0.0000000000000000000, 1.000000000000000000, 0.0000000000000000000 ) ) ;
#223 = PLANE ( 'NONE',  #54 ) ;
#224 = CARTESIAN_POINT ( 'NONE',  ( 4.189777606611760026E-14, 1.702227353321217800E-32, 12.00000000000000000 ) ) ;
#225 = CC_DESIGN_DATE_AND_TIME_ASSIGNMENT ( #108, #140, ( #139 ) ) ;
#226 = DIRECTION ( 'NONE',  ( 0.0000000000000000000, 1.000000000000000000, 0.0000000000000000000 ) ) ;
#227 = FACE_OUTER_BOUND ( 'NONE', #84, .T. ) ;
#228 = VERTEX_POINT ( 'NONE', #212 ) ;
#229 = PERSON_AND_ORGANIZATION ( #198, #86 ) ;
#230 = PRODUCT ( '321680', '321680', '', ( #100 ) ) ;
#231 = PRODUCT_DEFINITION_FORMATION_WITH_SPECIFIED_SOURCE ( 'ANY', '', #230, .NOT_KNOWN. ) ;
#232 = ORIENTED_EDGE ( 'NONE', *, *, #192, .F. ) ;
#233 = CC_DESIGN_DATE_AND_TIME_ASSIGNMENT ( #57, #172, ( #151 ) ) ;
#234 = EDGE_LOOP ( 'NONE', ( #28 ) ) ;
#235 = AXIS2_PLACEMENT_3D ( 'NONE', #133, #93, #185 ) ;
#236 = COORDINATED_UNIVERSAL_TIME_OFFSET ( 1, 0, .AHEAD. ) ;
#237 = ORIENTED_EDGE ( 'NONE', *, *, #192, .T. ) ;
#238 = ADVANCED_FACE ( 'NONE', ( #203 ), #36, .T. ) ;
#239 = CARTESIAN_POINT ( 'NONE',  ( 2.793185071074506684E-13, -9.797174393178826052E-15, 80.00000000000000000 ) ) ;
#240 = FACE_BOUND ( 'NONE', #87, .T. ) ;
#241 = CC_DESIGN_PERSON_AND_ORGANIZATION_ASSIGNMENT ( #101, #173, ( #231 ) ) ;
#242 = DIRECTION ( 'NONE',  ( -3.491481338843133355E-15, 1.224646799147353207E-16, -1.000000000000000000 ) ) ;
#243 = DIRECTION ( 'NONE',  ( -3.491481338843133355E-15, 1.224646799147353207E-16, -1.000000000000000000 ) ) ;
ENDSEC;
END-ISO-10303-21;
