ISO-10303-21;
HEADER;
FILE_DESCRIPTION (( 'STEP AP203' ),
    '1' );
FILE_NAME ('321679.step',
    '2021-12-02T12:56:24',
    ( '' ),
    ( '' ),
    'SwSTEP 2.0',
    'SolidWorks 2019',
    '' );
FILE_SCHEMA (( 'CONFIG_CONTROL_DESIGN' ));
ENDSEC;

DATA;
#1 = CARTESIAN_POINT ( 'NONE',  ( -7.974425646597885981E-31, 2.797051994664384856E-32, -2.283966280409830491E-16 ) ) ;
#2 = CC_DESIGN_SECURITY_CLASSIFICATION ( #6, ( #86 ) ) ;
#3 = AXIS2_PLACEMENT_3D ( 'NONE', #25, #77, #118 ) ;
#4 = CARTESIAN_POINT ( 'NONE',  ( 4.189777606611760026E-14, 2.265000000000013447, 12.00000000000000000 ) ) ;
#5 = ADVANCED_FACE ( 'NONE', ( #128 ), #74, .T. ) ;
#6 = SECURITY_CLASSIFICATION ( '', '', #95 ) ;
#7 = PERSON ( 'UNSPECIFIED', 'UNSPECIFIED', 'UNSPECIFIED', ('UNSPECIFIED'), ('UNSPECIFIED'), ('UNSPECIFIED') ) ;
#8 = EDGE_LOOP ( 'NONE', ( #17 ) ) ;
#9 = PERSON_AND_ORGANIZATION ( #7, #235 ) ;
#10 = CIRCLE ( 'NONE', #3, 2.265000000000014779 ) ;
#11 = APPROVAL_ROLE ( '' ) ;
#12 = APPROVAL ( #123, 'UNSPECIFIED' ) ;
#13 = EDGE_LOOP ( 'NONE', ( #70 ) ) ;
#14 = APPLICATION_PROTOCOL_DEFINITION ( 'international standard', 'config_control_design', 1994, #142 ) ;
#15 = ORIENTED_EDGE ( 'NONE', *, *, #237, .F. ) ;
#16 = APPROVAL_STATUS ( 'not_yet_approved' ) ;
#17 = ORIENTED_EDGE ( 'NONE', *, *, #65, .T. ) ;
#18 = PERSON_AND_ORGANIZATION_ROLE ( 'design_supplier' ) ;
#19 = PLANE ( 'NONE',  #228 ) ;
#20 = APPROVAL_ROLE ( '' ) ;
#21 = DIRECTION ( 'NONE',  ( 3.491481338843133355E-15, -1.224646799147353207E-16, 1.000000000000000000 ) ) ;
#22 = CC_DESIGN_DATE_AND_TIME_ASSIGNMENT ( #145, #182, ( #203 ) ) ;
#23 = FACE_OUTER_BOUND ( 'NONE', #109, .T. ) ;
#24 = DIRECTION ( 'NONE',  ( 4.275831445896958607E-31, 1.000000000000000000, 1.224646799147353207E-16 ) ) ;
#25 = CARTESIAN_POINT ( 'NONE',  ( 4.189777606611760026E-14, -1.469576158976823947E-15, 12.00000000000000000 ) ) ;
#26 = VERTEX_POINT ( 'NONE', #124 ) ;
#27 = AXIS2_PLACEMENT_3D ( 'NONE', #152, #187, #238 ) ;
#28 = EDGE_LOOP ( 'NONE', ( #146 ) ) ;
#29 =( NAMED_UNIT ( * ) SI_UNIT ( $, .STERADIAN. ) SOLID_ANGLE_UNIT ( ) );
#30 = ADVANCED_FACE ( 'NONE', ( #100, #169 ), #39, .T. ) ;
#31 = ORIENTED_EDGE ( 'NONE', *, *, #65, .F. ) ;
#32 = AXIS2_PLACEMENT_3D ( 'NONE', #101, #42, #185 ) ;
#33 =( NAMED_UNIT ( * ) PLANE_ANGLE_UNIT ( ) SI_UNIT ( $, .RADIAN. ) );
#34 = PERSON_AND_ORGANIZATION ( #7, #235 ) ;
#35 = ADVANCED_FACE ( 'NONE', ( #151 ), #117, .F. ) ;
#36 = LOCAL_TIME ( 13, 56, 24.00000000000000000, #149 ) ;
#37 = FACE_BOUND ( 'NONE', #213, .T. ) ;
#38 = CIRCLE ( 'NONE', #240, 1.600000000000000977 ) ;
#39 = CYLINDRICAL_SURFACE ( 'NONE', #155, 1.999999999999996669 ) ;
#40 = CYLINDRICAL_SURFACE ( 'NONE', #68, 2.265000000000014779 ) ;
#41 = PRODUCT_DEFINITION_SHAPE ( 'NONE', 'NONE',  #203 ) ;
#42 = DIRECTION ( 'NONE',  ( -3.491481338843133355E-15, 1.224646799147353207E-16, -1.000000000000000000 ) ) ;
#43 = LOCAL_TIME ( 13, 56, 24.00000000000000000, #93 ) ;
#44 = DIRECTION ( 'NONE',  ( 4.251500980987248199E-31, 1.000000000000000000, 1.196691139608716824E-16 ) ) ;
#45 = EDGE_CURVE ( 'NONE', #190, #190, #66, .T. ) ;
#46 = CARTESIAN_POINT ( 'NONE',  ( 4.189777606611760026E-14, 1.698477953864563128E-32, 12.00000000000000000 ) ) ;
#47 = APPROVAL_PERSON_ORGANIZATION ( #34, #67, #127 ) ;
#48 = MECHANICAL_CONTEXT ( 'NONE', #142, 'mechanical' ) ;
#49 = ORIENTED_EDGE ( 'NONE', *, *, #226, .F. ) ;
#50 = VERTEX_POINT ( 'NONE', #215 ) ;
#51 = CIRCLE ( 'NONE', #229, 2.265000000000014779 ) ;
#52 = MANIFOLD_SOLID_BREP ( 'Corps-Déplacer/Copier1[1]', #191 ) ;
#53 = AXIS2_PLACEMENT_3D ( 'NONE', #96, #135, #168 ) ;
#54 = COORDINATED_UNIVERSAL_TIME_OFFSET ( 1, 0, .AHEAD. ) ;
#55 = ORIENTED_EDGE ( 'NONE', *, *, #237, .T. ) ;
#56 = PERSON_AND_ORGANIZATION ( #7, #235 ) ;
#57 = DIRECTION ( 'NONE',  ( 3.491481338843133355E-15, -1.224646799147353207E-16, 1.000000000000000000 ) ) ;
#58 = CC_DESIGN_APPROVAL ( #12, ( #6 ) ) ;
#59 = FACE_OUTER_BOUND ( 'NONE', #28, .T. ) ;
#60 = ADVANCED_FACE ( 'NONE', ( #239, #37 ), #81, .T. ) ;
#61 = DIRECTION ( 'NONE',  ( 0.0000000000000000000, 1.000000000000000000, 0.0000000000000000000 ) ) ;
#62 = APPROVAL_PERSON_ORGANIZATION ( #56, #172, #11 ) ;
#63 = ADVANCED_FACE ( 'NONE', ( #116, #242 ), #120, .T. ) ;
#64 = VERTEX_POINT ( 'NONE', #4 ) ;
#65 = EDGE_CURVE ( 'NONE', #26, #26, #10, .T. ) ;
#66 = CIRCLE ( 'NONE', #209, 2.000000000000000888 ) ;
#67 = APPROVAL ( #16, 'UNSPECIFIED' ) ;
#68 = AXIS2_PLACEMENT_3D ( 'NONE', #188, #136, #24 ) ;
#69 = UNCERTAINTY_MEASURE_WITH_UNIT (LENGTH_MEASURE( 1.000000000000000082E-05 ), #214, 'distance_accuracy_value', 'NONE');
#70 = ORIENTED_EDGE ( 'NONE', *, *, #218, .T. ) ;
#71 = CARTESIAN_POINT ( 'NONE',  ( 1.396592535537253737E-15, 2.265000000000014779, 0.4000000000000000777 ) ) ;
#72 = APPLICATION_PROTOCOL_DEFINITION ( 'international standard', 'config_control_design', 1994, #175 ) ;
#73 = VERTEX_POINT ( 'NONE', #216 ) ;
#74 = PLANE ( 'NONE',  #53 ) ;
#75 = PERSON_AND_ORGANIZATION_ROLE ( 'classification_officer' ) ;
#76 = FACE_OUTER_BOUND ( 'NONE', #8, .T. ) ;
#77 = DIRECTION ( 'NONE',  ( -3.491481338843133355E-15, 1.224646799147353207E-16, -1.000000000000000000 ) ) ;
#78 = FACE_OUTER_BOUND ( 'NONE', #148, .T. ) ;
#79 = DIRECTION ( 'NONE',  ( -4.275831445896958607E-31, -1.000000000000000000, -1.224646799147353207E-16 ) ) ;
#80 = DIRECTION ( 'NONE',  ( -3.491481338843133355E-15, 1.224646799147353207E-16, -1.000000000000000000 ) ) ;
#81 = CONICAL_SURFACE ( 'NONE', #115, 1.865000000000013536, 0.7853981633974498333 ) ;
#82 = LOCAL_TIME ( 13, 56, 24.00000000000000000, #129 ) ;
#83 = VERTEX_POINT ( 'NONE', #71 ) ;
#84 = ORIENTED_EDGE ( 'NONE', *, *, #90, .T. ) ;
#85 = SHAPE_DEFINITION_REPRESENTATION ( #41, #232 ) ;
#86 = PRODUCT_DEFINITION_FORMATION_WITH_SPECIFIED_SOURCE ( 'ANY', '', #227, .NOT_KNOWN. ) ;
#87 = CLOSED_SHELL ( 'NONE', ( #156, #241, #5, #60 ) ) ;
#88 = EDGE_LOOP ( 'NONE', ( #106 ) ) ;
#89 = CALENDAR_DATE ( 2021, 2, 12 ) ;
#90 = EDGE_CURVE ( 'NONE', #157, #157, #103, .T. ) ;
#91 = ORIENTED_EDGE ( 'NONE', *, *, #90, .F. ) ;
#92 = DIRECTION ( 'NONE',  ( 1.000000000000000000, 0.0000000000000000000, 0.0000000000000000000 ) ) ;
#93 = COORDINATED_UNIVERSAL_TIME_OFFSET ( 1, 0, .AHEAD. ) ;
#94 = EDGE_LOOP ( 'NONE', ( #49 ) ) ;
#95 = SECURITY_CLASSIFICATION_LEVEL ( 'unclassified' ) ;
#96 = CARTESIAN_POINT ( 'NONE',  ( -3.987212823298942991E-31, 1.398525997332192428E-32, -1.141983140204915245E-16 ) ) ;
#97 = FACE_BOUND ( 'NONE', #217, .T. ) ;
#98 = CARTESIAN_POINT ( 'NONE',  ( -7.974425646597885981E-31, 2.797051994664384856E-32, -2.283966280409830491E-16 ) ) ;
#99 = AXIS2_PLACEMENT_3D ( 'NONE', #1, #80, #154 ) ;
#100 = FACE_OUTER_BOUND ( 'NONE', #195, .T. ) ;
#101 = CARTESIAN_POINT ( 'NONE',  ( 2.793185071074506684E-13, 1.199807826129472128E-32, 80.00000000000000000 ) ) ;
#102 = CARTESIAN_POINT ( 'NONE',  ( 4.350034318034478484E-14, 1.999999999999990452, 12.45899346400578978 ) ) ;
#103 = CIRCLE ( 'NONE', #180, 1.999999999999992228 ) ;
#104 = ADVANCED_FACE ( 'NONE', ( #97, #78 ), #197, .T. ) ;
#105 = CALENDAR_DATE ( 2021, 2, 12 ) ;
#106 = ORIENTED_EDGE ( 'NONE', *, *, #45, .F. ) ;
#107 = DATE_AND_TIME ( #194, #36 ) ;
#108 = PERSON_AND_ORGANIZATION_ROLE ( 'design_owner' ) ;
#109 = EDGE_LOOP ( 'NONE', ( #111 ) ) ;
#110 = DATE_AND_TIME ( #196, #43 ) ;
#111 = ORIENTED_EDGE ( 'NONE', *, *, #193, .T. ) ;
#112 = DATE_AND_TIME ( #89, #132 ) ;
#113 = PERSON_AND_ORGANIZATION_ROLE ( 'creator' ) ;
#114 = CC_DESIGN_APPROVAL ( #172, ( #203 ) ) ;
#115 = AXIS2_PLACEMENT_3D ( 'NONE', #98, #21, #167 ) ;
#116 = FACE_OUTER_BOUND ( 'NONE', #88, .T. ) ;
#117 = PLANE ( 'NONE',  #32 ) ;
#118 = DIRECTION ( 'NONE',  ( 0.0000000000000000000, 1.000000000000000000, 0.0000000000000000000 ) ) ;
#119 = CARTESIAN_POINT ( 'NONE',  ( 4.350034318034478484E-14, -1.525786646629248530E-15, 12.45899346400578978 ) ) ;
#120 = CONICAL_SURFACE ( 'NONE', #140, 1.600000000000000977, 0.7853981633974512766 ) ;
#121 = AXIS2_PLACEMENT_3D ( 'NONE', #166, #231, #92 ) ;
#122 = CARTESIAN_POINT ( 'NONE',  ( 2.793185071074506684E-13, -9.797174393178826052E-15, 80.00000000000000000 ) ) ;
#123 = APPROVAL_STATUS ( 'not_yet_approved' ) ;
#124 = CARTESIAN_POINT ( 'NONE',  ( 4.189777606611760026E-14, 2.265000000000013447, 12.00000000000000000 ) ) ;
#125 = PERSON_AND_ORGANIZATION ( #7, #235 ) ;
#126 = ORIENTED_EDGE ( 'NONE', *, *, #193, .F. ) ;
#127 = APPROVAL_ROLE ( '' ) ;
#128 = FACE_OUTER_BOUND ( 'NONE', #199, .T. ) ;
#129 = COORDINATED_UNIVERSAL_TIME_OFFSET ( 1, 0, .AHEAD. ) ;
#130 = DIRECTION ( 'NONE',  ( 0.0000000000000000000, 1.000000000000000000, 0.0000000000000000000 ) ) ;
#131 = CARTESIAN_POINT ( 'NONE',  ( 4.189777606611760026E-14, 1.698477953864563128E-32, 12.00000000000000000 ) ) ;
#132 = LOCAL_TIME ( 13, 56, 24.00000000000000000, #54 ) ;
#133 = DIRECTION ( 'NONE',  ( -3.491481338843133355E-15, 1.224646799147353207E-16, -1.000000000000000000 ) ) ;
#134 = ADVANCED_FACE ( 'NONE', ( #76 ), #222, .F. ) ;
#135 = DIRECTION ( 'NONE',  ( -3.491481338843133355E-15, 1.224646799147353207E-16, -1.000000000000000000 ) ) ;
#136 = DIRECTION ( 'NONE',  ( -3.491481338843133355E-15, 1.224646799147353207E-16, -1.000000000000000000 ) ) ;
#137 =( GEOMETRIC_REPRESENTATION_CONTEXT ( 3 ) GLOBAL_UNCERTAINTY_ASSIGNED_CONTEXT ( ( #69 ) ) GLOBAL_UNIT_ASSIGNED_CONTEXT ( ( #214, #33, #29 ) ) REPRESENTATION_CONTEXT ( 'NONE', 'WORKASPACE' ) );
#138 = DIRECTION ( 'NONE',  ( -4.275831445896958607E-31, -1.000000000000000000, -1.224646799147353207E-16 ) ) ;
#139 = MANIFOLD_SOLID_BREP ( 'Corps-Déplacer/Copier1[2]', #87 ) ;
#140 = AXIS2_PLACEMENT_3D ( 'NONE', #221, #219, #130 ) ;
#141 = CC_DESIGN_DATE_AND_TIME_ASSIGNMENT ( #107, #178, ( #6 ) ) ;
#142 = APPLICATION_CONTEXT ( 'configuration controlled 3d designs of mechanical parts and assemblies' ) ;
#143 = CC_DESIGN_PERSON_AND_ORGANIZATION_ASSIGNMENT ( #236, #75, ( #6 ) ) ;
#144 = EDGE_LOOP ( 'NONE', ( #126 ) ) ;
#145 = DATE_AND_TIME ( #147, #82 ) ;
#146 = ORIENTED_EDGE ( 'NONE', *, *, #218, .F. ) ;
#147 = CALENDAR_DATE ( 2021, 2, 12 ) ;
#148 = EDGE_LOOP ( 'NONE', ( #31 ) ) ;
#149 = COORDINATED_UNIVERSAL_TIME_OFFSET ( 1, 0, .AHEAD. ) ;
#150 = CARTESIAN_POINT ( 'NONE',  ( 2.779219145719134403E-13, -9.748188521212932624E-15, 79.60000000000000853 ) ) ;
#151 = FACE_OUTER_BOUND ( 'NONE', #94, .T. ) ;
#152 = CARTESIAN_POINT ( 'NONE',  ( 4.189777606611760026E-14, -1.469576158976823947E-15, 12.00000000000000000 ) ) ;
#153 = CARTESIAN_POINT ( 'NONE',  ( 4.189777606611760026E-14, -1.469576158976823947E-15, 12.00000000000000000 ) ) ;
#154 = DIRECTION ( 'NONE',  ( 4.275831445896958607E-31, 1.000000000000000000, 1.224646799147353207E-16 ) ) ;
#155 = AXIS2_PLACEMENT_3D ( 'NONE', #189, #204, #170 ) ;
#156 = ADVANCED_FACE ( 'NONE', ( #23, #59 ), #40, .T. ) ;
#157 = VERTEX_POINT ( 'NONE', #102 ) ;
#158 = CC_DESIGN_PERSON_AND_ORGANIZATION_ASSIGNMENT ( #200, #113, ( #86 ) ) ;
#159 = CIRCLE ( 'NONE', #161, 2.265000000000014779 ) ;
#160 = ORIENTED_EDGE ( 'NONE', *, *, #226, .T. ) ;
#161 = AXIS2_PLACEMENT_3D ( 'NONE', #153, #133, #223 ) ;
#162 = LOCAL_TIME ( 13, 56, 24.00000000000000000, #208 ) ;
#163 = ORIENTED_EDGE ( 'NONE', *, *, #45, .T. ) ;
#164 = APPROVAL_DATE_TIME ( #112, #172 ) ;
#165 = PERSON_AND_ORGANIZATION_ROLE ( 'creator' ) ;
#166 = CARTESIAN_POINT ( 'NONE',  ( 0.0000000000000000000, 0.0000000000000000000, 0.0000000000000000000 ) ) ;
#167 = DIRECTION ( 'NONE',  ( -4.275831445896958607E-31, -1.000000000000000000, -1.224646799147353207E-16 ) ) ;
#168 = DIRECTION ( 'NONE',  ( 4.275831445896958607E-31, 1.000000000000000000, 1.224646799147353207E-16 ) ) ;
#169 = FACE_OUTER_BOUND ( 'NONE', #181, .T. ) ;
#170 = DIRECTION ( 'NONE',  ( 4.275831445896958607E-31, 1.000000000000000000, 1.224646799147353207E-16 ) ) ;
#171 = DIRECTION ( 'NONE',  ( 0.0000000000000000000, 1.000000000000000000, 0.0000000000000000000 ) ) ;
#172 = APPROVAL ( #179, 'UNSPECIFIED' ) ;
#173 = DIRECTION ( 'NONE',  ( 3.491481338843133355E-15, -1.224646799147353207E-16, 1.000000000000000000 ) ) ;
#174 = CIRCLE ( 'NONE', #99, 1.865000000000013536 ) ;
#175 = APPLICATION_CONTEXT ( 'configuration controlled 3d designs of mechanical parts and assemblies' ) ;
#176 = DATE_AND_TIME ( #105, #162 ) ;
#177 = CC_DESIGN_PERSON_AND_ORGANIZATION_ASSIGNMENT ( #183, #18, ( #86 ) ) ;
#178 = DATE_TIME_ROLE ( 'classification_date' ) ;
#179 = APPROVAL_STATUS ( 'not_yet_approved' ) ;
#180 = AXIS2_PLACEMENT_3D ( 'NONE', #119, #184, #205 ) ;
#181 = EDGE_LOOP ( 'NONE', ( #163 ) ) ;
#182 = DATE_TIME_ROLE ( 'creation_date' ) ;
#183 = PERSON_AND_ORGANIZATION ( #7, #235 ) ;
#184 = DIRECTION ( 'NONE',  ( -3.491481338843133355E-15, 1.224646799147353207E-16, -1.000000000000000000 ) ) ;
#185 = DIRECTION ( 'NONE',  ( 4.275831445896958607E-31, 1.000000000000000000, 1.224646799147353207E-16 ) ) ;
#186 = CC_DESIGN_PERSON_AND_ORGANIZATION_ASSIGNMENT ( #198, #165, ( #203 ) ) ;
#187 = DIRECTION ( 'NONE',  ( -3.491481338843133355E-15, 1.224646799147353207E-16, -1.000000000000000000 ) ) ;
#188 = CARTESIAN_POINT ( 'NONE',  ( 0.0000000000000000000, 0.0000000000000000000, 0.0000000000000000000 ) ) ;
#189 = CARTESIAN_POINT ( 'NONE',  ( 0.0000000000000000000, 0.0000000000000000000, 0.0000000000000000000 ) ) ;
#190 = VERTEX_POINT ( 'NONE', #207 ) ;
#191 = CLOSED_SHELL ( 'NONE', ( #134, #104, #30, #63, #35 ) ) ;
#192 = CC_DESIGN_APPROVAL ( #67, ( #86 ) ) ;
#193 = EDGE_CURVE ( 'NONE', #64, #64, #159, .T. ) ;
#194 = CALENDAR_DATE ( 2021, 2, 12 ) ;
#195 = EDGE_LOOP ( 'NONE', ( #91 ) ) ;
#196 = CALENDAR_DATE ( 2021, 2, 12 ) ;
#197 = CONICAL_SURFACE ( 'NONE', #27, 2.265000000000014779, 0.5235987755983005920 ) ;
#198 = PERSON_AND_ORGANIZATION ( #7, #235 ) ;
#199 = EDGE_LOOP ( 'NONE', ( #55 ) ) ;
#200 = PERSON_AND_ORGANIZATION ( #7, #235 ) ;
#201 = DIRECTION ( 'NONE',  ( -3.491481338843133355E-15, 1.224646799147353207E-16, -1.000000000000000000 ) ) ;
#202 = DIRECTION ( 'NONE',  ( -3.491481338843133355E-15, 1.224646799147353207E-16, -1.000000000000000000 ) ) ;
#203 = PRODUCT_DEFINITION ( 'UNKNOWN', '', #86, #230 ) ;
#204 = DIRECTION ( 'NONE',  ( -3.491481338843133355E-15, 1.224646799147353207E-16, -1.000000000000000000 ) ) ;
#205 = DIRECTION ( 'NONE',  ( 0.0000000000000000000, 1.000000000000000000, 0.0000000000000000000 ) ) ;
#206 = CARTESIAN_POINT ( 'NONE',  ( 1.396592535537252750E-15, -4.898587196589410610E-17, 0.3999999999999998002 ) ) ;
#207 = CARTESIAN_POINT ( 'NONE',  ( 2.779219145719134403E-13, 1.999999999999991340, 79.60000000000000853 ) ) ;
#208 = COORDINATED_UNIVERSAL_TIME_OFFSET ( 1, 0, .AHEAD. ) ;
#209 = AXIS2_PLACEMENT_3D ( 'NONE', #150, #243, #61 ) ;
#210 = PRODUCT_RELATED_PRODUCT_CATEGORY ( 'detail', '', ( #227 ) ) ;
#211 = APPROVAL_DATE_TIME ( #176, #12 ) ;
#212 = CC_DESIGN_PERSON_AND_ORGANIZATION_ASSIGNMENT ( #125, #108, ( #227 ) ) ;
#213 = EDGE_LOOP ( 'NONE', ( #15 ) ) ;
#214 =( LENGTH_UNIT ( ) NAMED_UNIT ( * ) SI_UNIT ( .MILLI., .METRE. ) );
#215 = CARTESIAN_POINT ( 'NONE',  ( 2.793185071074506684E-13, 1.599999999999991207, 80.00000000000000000 ) ) ;
#216 = CARTESIAN_POINT ( 'NONE',  ( 0.0000000000000000000, 1.865000000000013536, 0.0000000000000000000 ) ) ;
#217 = EDGE_LOOP ( 'NONE', ( #84 ) ) ;
#218 = EDGE_CURVE ( 'NONE', #83, #83, #51, .T. ) ;
#219 = DIRECTION ( 'NONE',  ( -3.491481338843133355E-15, 1.224646799147353207E-16, -1.000000000000000000 ) ) ;
#220 = AXIS2_PLACEMENT_3D ( 'NONE', #131, #57, #79 ) ;
#221 = CARTESIAN_POINT ( 'NONE',  ( 2.793185071074506684E-13, -9.797174393178826052E-15, 80.00000000000000000 ) ) ;
#222 = PLANE ( 'NONE',  #220 ) ;
#223 = DIRECTION ( 'NONE',  ( 0.0000000000000000000, 1.000000000000000000, 0.0000000000000000000 ) ) ;
#224 = APPROVAL_PERSON_ORGANIZATION ( #9, #12, #20 ) ;
#225 = FACE_OUTER_BOUND ( 'NONE', #144, .T. ) ;
#226 = EDGE_CURVE ( 'NONE', #50, #50, #38, .T. ) ;
#227 = PRODUCT ( '321679', '321679', '', ( #48 ) ) ;
#228 = AXIS2_PLACEMENT_3D ( 'NONE', #46, #173, #138 ) ;
#229 = AXIS2_PLACEMENT_3D ( 'NONE', #206, #202, #44 ) ;
#230 = DESIGN_CONTEXT ( 'detailed design', #175, 'design' ) ;
#231 = DIRECTION ( 'NONE',  ( 0.0000000000000000000, 0.0000000000000000000, 1.000000000000000000 ) ) ;
#232 = ADVANCED_BREP_SHAPE_REPRESENTATION ( '321679', ( #52, #139, #121 ), #137 ) ;
#233 = EDGE_LOOP ( 'NONE', ( #160 ) ) ;
#234 = APPROVAL_DATE_TIME ( #110, #67 ) ;
#235 = ORGANIZATION ( 'UNSPECIFIED', 'UNSPECIFIED', '' ) ;
#236 = PERSON_AND_ORGANIZATION ( #7, #235 ) ;
#237 = EDGE_CURVE ( 'NONE', #73, #73, #174, .T. ) ;
#238 = DIRECTION ( 'NONE',  ( 0.0000000000000000000, 1.000000000000000000, 0.0000000000000000000 ) ) ;
#239 = FACE_OUTER_BOUND ( 'NONE', #13, .T. ) ;
#240 = AXIS2_PLACEMENT_3D ( 'NONE', #122, #201, #171 ) ;
#241 = ADVANCED_FACE ( 'NONE', ( #225 ), #19, .T. ) ;
#242 = FACE_BOUND ( 'NONE', #233, .T. ) ;
#243 = DIRECTION ( 'NONE',  ( -3.491481338843133355E-15, 1.224646799147353207E-16, -1.000000000000000000 ) ) ;
ENDSEC;
END-ISO-10303-21;
