ISO-10303-21;
HEADER;
FILE_DESCRIPTION (( 'STEP AP203' ),
    '1' );
FILE_NAME ('321678.step',
    '2021-12-02T12:56:24',
    ( '' ),
    ( '' ),
    'SwSTEP 2.0',
    'SolidWorks 2019',
    '' );
FILE_SCHEMA (( 'CONFIG_CONTROL_DESIGN' ));
ENDSEC;

DATA;
#1 = PERSON_AND_ORGANIZATION ( #9, #2 ) ;
#2 = ORGANIZATION ( 'UNSPECIFIED', 'UNSPECIFIED', '' ) ;
#3 = PERSON_AND_ORGANIZATION ( #9, #2 ) ;
#4 = ORIENTED_EDGE ( 'NONE', *, *, #133, .T. ) ;
#5 = PRODUCT_DEFINITION ( 'UNKNOWN', '', #16, #214 ) ;
#6 = EDGE_LOOP ( 'NONE', ( #141 ) ) ;
#7 = CLOSED_SHELL ( 'NONE', ( #65, #113, #234, #212 ) ) ;
#8 = ORIENTED_EDGE ( 'NONE', *, *, #118, .F. ) ;
#9 = PERSON ( 'UNSPECIFIED', 'UNSPECIFIED', 'UNSPECIFIED', ('UNSPECIFIED'), ('UNSPECIFIED'), ('UNSPECIFIED') ) ;
#10 = DIRECTION ( 'NONE',  ( 4.275831445896958607E-31, 1.000000000000000000, 1.224646799147353207E-16 ) ) ;
#11 = LOCAL_TIME ( 13, 56, 24.00000000000000000, #114 ) ;
#12 = CYLINDRICAL_SURFACE ( 'NONE', #174, 2.260000000000015330 ) ;
#13 = APPROVAL_ROLE ( '' ) ;
#14 = DIRECTION ( 'NONE',  ( -3.491481338843133355E-15, 1.224646799147353207E-16, -1.000000000000000000 ) ) ;
#15 = FACE_BOUND ( 'NONE', #100, .T. ) ;
#16 = PRODUCT_DEFINITION_FORMATION_WITH_SPECIFIED_SOURCE ( 'ANY', '', #176, .NOT_KNOWN. ) ;
#17 = VERTEX_POINT ( 'NONE', #110 ) ;
#18 = CC_DESIGN_PERSON_AND_ORGANIZATION_ASSIGNMENT ( #206, #37, ( #16 ) ) ;
#19 = PERSON_AND_ORGANIZATION_ROLE ( 'creator' ) ;
#20 = APPROVAL_PERSON_ORGANIZATION ( #112, #90, #150 ) ;
#21 = APPLICATION_CONTEXT ( 'configuration controlled 3d designs of mechanical parts and assemblies' ) ;
#22 = ORIENTED_EDGE ( 'NONE', *, *, #81, .F. ) ;
#23 = APPROVAL ( #224, 'UNSPECIFIED' ) ;
#24 = EDGE_LOOP ( 'NONE', ( #8 ) ) ;
#25 = DIRECTION ( 'NONE',  ( -3.491481338843133355E-15, 1.224646799147353207E-16, -1.000000000000000000 ) ) ;
#26 = DIRECTION ( 'NONE',  ( 0.0000000000000000000, 1.000000000000000000, 0.0000000000000000000 ) ) ;
#27 = ADVANCED_FACE ( 'NONE', ( #97, #79 ), #147, .T. ) ;
#28 = AXIS2_PLACEMENT_3D ( 'NONE', #105, #160, #143 ) ;
#29 = CARTESIAN_POINT ( 'NONE',  ( 4.189777606611760026E-14, 1.694728554407908183E-32, 12.00000000000000000 ) ) ;
#30 = AXIS2_PLACEMENT_3D ( 'NONE', #219, #47, #238 ) ;
#31 = FACE_BOUND ( 'NONE', #154, .T. ) ;
#32 = DIRECTION ( 'NONE',  ( -3.491481338843133355E-15, 1.224646799147353207E-16, -1.000000000000000000 ) ) ;
#33 = APPROVAL_DATE_TIME ( #240, #90 ) ;
#34 = CARTESIAN_POINT ( 'NONE',  ( 4.189777606611760026E-14, -1.469576158976823947E-15, 12.00000000000000000 ) ) ;
#35 = DATE_TIME_ROLE ( 'creation_date' ) ;
#36 = CC_DESIGN_PERSON_AND_ORGANIZATION_ASSIGNMENT ( #1, #148, ( #176 ) ) ;
#37 = PERSON_AND_ORGANIZATION_ROLE ( 'design_supplier' ) ;
#38 = EDGE_LOOP ( 'NONE', ( #227 ) ) ;
#39 = EDGE_LOOP ( 'NONE', ( #138 ) ) ;
#40 = CC_DESIGN_APPROVAL ( #85, ( #179 ) ) ;
#41 = ADVANCED_BREP_SHAPE_REPRESENTATION ( '321678', ( #131, #127, #159 ), #125 ) ;
#42 = DIRECTION ( 'NONE',  ( 0.0000000000000000000, 1.000000000000000000, 0.0000000000000000000 ) ) ;
#43 = APPROVAL_DATE_TIME ( #62, #85 ) ;
#44 = DIRECTION ( 'NONE',  ( -4.275831445896958607E-31, -1.000000000000000000, -1.224646799147353207E-16 ) ) ;
#45 = DIRECTION ( 'NONE',  ( 3.491481338843133355E-15, -1.224646799147353207E-16, 1.000000000000000000 ) ) ;
#46 = CARTESIAN_POINT ( 'NONE',  ( -3.976523244684200634E-31, 1.394776597875537757E-32, -1.138921523207046808E-16 ) ) ;
#47 = DIRECTION ( 'NONE',  ( -3.491481338843133355E-15, 1.224646799147353207E-16, -1.000000000000000000 ) ) ;
#48 = UNCERTAINTY_MEASURE_WITH_UNIT (LENGTH_MEASURE( 1.000000000000000082E-05 ), #130, 'distance_accuracy_value', 'NONE');
#49 = CARTESIAN_POINT ( 'NONE',  ( 4.347010606498200980E-14, 1.999999999999990452, 12.45033320996794757 ) ) ;
#50 = AXIS2_PLACEMENT_3D ( 'NONE', #123, #45, #67 ) ;
#51 = DIRECTION ( 'NONE',  ( 0.0000000000000000000, 0.0000000000000000000, 1.000000000000000000 ) ) ;
#52 = PRODUCT_DEFINITION_SHAPE ( 'NONE', 'NONE',  #5 ) ;
#53 = PERSON_AND_ORGANIZATION_ROLE ( 'creator' ) ;
#54 = APPROVAL_ROLE ( '' ) ;
#55 = DATE_TIME_ROLE ( 'classification_date' ) ;
#56 = CC_DESIGN_PERSON_AND_ORGANIZATION_ASSIGNMENT ( #204, #53, ( #5 ) ) ;
#57 = APPROVAL_PERSON_ORGANIZATION ( #3, #85, #13 ) ;
#58 = ORIENTED_EDGE ( 'NONE', *, *, #118, .T. ) ;
#59 = ORIENTED_EDGE ( 'NONE', *, *, #99, .F. ) ;
#60 = CIRCLE ( 'NONE', #242, 2.260000000000014886 ) ;
#61 = DIRECTION ( 'NONE',  ( -3.491481338843133355E-15, 1.224646799147353207E-16, -1.000000000000000000 ) ) ;
#62 = DATE_AND_TIME ( #121, #223 ) ;
#63 = FACE_OUTER_BOUND ( 'NONE', #98, .T. ) ;
#64 = FACE_OUTER_BOUND ( 'NONE', #119, .T. ) ;
#65 = ADVANCED_FACE ( 'NONE', ( #145, #193 ), #12, .T. ) ;
#66 = CONICAL_SURFACE ( 'NONE', #117, 2.260000000000014886, 0.5235987755982999259 ) ;
#67 = DIRECTION ( 'NONE',  ( -4.275831445896957731E-31, -1.000000000000000000, -1.224646799147352961E-16 ) ) ;
#68 = CARTESIAN_POINT ( 'NONE',  ( 0.0000000000000000000, 0.0000000000000000000, 0.0000000000000000000 ) ) ;
#69 = CARTESIAN_POINT ( 'NONE',  ( 4.189777606611760026E-14, 2.260000000000013554, 12.00000000000000000 ) ) ;
#70 = VERTEX_POINT ( 'NONE', #69 ) ;
#71 = APPROVAL_PERSON_ORGANIZATION ( #166, #23, #54 ) ;
#72 = DATE_AND_TIME ( #202, #211 ) ;
#73 = CARTESIAN_POINT ( 'NONE',  ( 2.793185071074506684E-13, 1.599999999999991207, 80.00000000000000000 ) ) ;
#74 = AXIS2_PLACEMENT_3D ( 'NONE', #194, #158, #173 ) ;
#75 = COORDINATED_UNIVERSAL_TIME_OFFSET ( 1, 0, .AHEAD. ) ;
#76 = ORIENTED_EDGE ( 'NONE', *, *, #99, .T. ) ;
#77 = EDGE_LOOP ( 'NONE', ( #80 ) ) ;
#78 = CC_DESIGN_DATE_AND_TIME_ASSIGNMENT ( #115, #55, ( #179 ) ) ;
#79 = FACE_OUTER_BOUND ( 'NONE', #171, .T. ) ;
#80 = ORIENTED_EDGE ( 'NONE', *, *, #167, .F. ) ;
#81 = EDGE_CURVE ( 'NONE', #17, #17, #185, .T. ) ;
#82 = CARTESIAN_POINT ( 'NONE',  ( -7.953046489368401267E-31, 2.789553195751075513E-32, -2.277843046414093615E-16 ) ) ;
#83 = CC_DESIGN_APPROVAL ( #23, ( #5 ) ) ;
#84 = CARTESIAN_POINT ( 'NONE',  ( 2.793185071074506684E-13, -9.797174393178826052E-15, 80.00000000000000000 ) ) ;
#85 = APPROVAL ( #195, 'UNSPECIFIED' ) ;
#86 = FACE_OUTER_BOUND ( 'NONE', #39, .T. ) ;
#87 = DIRECTION ( 'NONE',  ( 4.275831445896958607E-31, 1.000000000000000000, 1.224646799147353207E-16 ) ) ;
#88 = DIRECTION ( 'NONE',  ( -3.491481338843133355E-15, 1.224646799147353207E-16, -1.000000000000000000 ) ) ;
#89 = CALENDAR_DATE ( 2021, 2, 12 ) ;
#90 = APPROVAL ( #221, 'UNSPECIFIED' ) ;
#91 = VERTEX_POINT ( 'NONE', #73 ) ;
#92 = CARTESIAN_POINT ( 'NONE',  ( 1.396592535537253342E-15, 2.260000000000015330, 0.3999999999999999667 ) ) ;
#93 = CC_DESIGN_SECURITY_CLASSIFICATION ( #179, ( #16 ) ) ;
#94 = APPROVAL_DATE_TIME ( #109, #23 ) ;
#95 = SECURITY_CLASSIFICATION_LEVEL ( 'unclassified' ) ;
#96 = AXIS2_PLACEMENT_3D ( 'NONE', #46, #61, #197 ) ;
#97 = FACE_OUTER_BOUND ( 'NONE', #24, .T. ) ;
#98 = EDGE_LOOP ( 'NONE', ( #76 ) ) ;
#99 = EDGE_CURVE ( 'NONE', #70, #70, #104, .T. ) ;
#100 = EDGE_LOOP ( 'NONE', ( #228 ) ) ;
#101 = DIRECTION ( 'NONE',  ( -3.491481338843133355E-15, 1.224646799147353207E-16, -1.000000000000000000 ) ) ;
#102 = FACE_OUTER_BOUND ( 'NONE', #77, .T. ) ;
#103 = SHAPE_DEFINITION_REPRESENTATION ( #52, #41 ) ;
#104 = CIRCLE ( 'NONE', #28, 2.260000000000014886 ) ;
#105 = CARTESIAN_POINT ( 'NONE',  ( 4.189777606611760026E-14, -1.469576158976823947E-15, 12.00000000000000000 ) ) ;
#106 = DIRECTION ( 'NONE',  ( -4.275831445896958607E-31, -1.000000000000000000, -1.224646799147353207E-16 ) ) ;
#107 = CARTESIAN_POINT ( 'NONE',  ( 4.189777606611760026E-14, -1.469576158976823947E-15, 12.00000000000000000 ) ) ;
#108 = AXIS2_PLACEMENT_3D ( 'NONE', #192, #215, #44 ) ;
#109 = DATE_AND_TIME ( #134, #136 ) ;
#110 = CARTESIAN_POINT ( 'NONE',  ( 0.0000000000000000000, 1.860000000000013864, 0.0000000000000000000 ) ) ;
#111 = EDGE_CURVE ( 'NONE', #180, #180, #162, .T. ) ;
#112 = PERSON_AND_ORGANIZATION ( #9, #2 ) ;
#113 = ADVANCED_FACE ( 'NONE', ( #102 ), #178, .T. ) ;
#114 = COORDINATED_UNIVERSAL_TIME_OFFSET ( 1, 0, .AHEAD. ) ;
#115 = DATE_AND_TIME ( #137, #152 ) ;
#116 = EDGE_LOOP ( 'NONE', ( #207 ) ) ;
#117 = AXIS2_PLACEMENT_3D ( 'NONE', #34, #165, #241 ) ;
#118 = EDGE_CURVE ( 'NONE', #181, #181, #217, .T. ) ;
#119 = EDGE_LOOP ( 'NONE', ( #170 ) ) ;
#120 = CIRCLE ( 'NONE', #186, 1.600000000000000977 ) ;
#121 = CALENDAR_DATE ( 2021, 2, 12 ) ;
#122 = DIRECTION ( 'NONE',  ( 3.491481338843133355E-15, -1.224646799147353207E-16, 1.000000000000000000 ) ) ;
#123 = CARTESIAN_POINT ( 'NONE',  ( -7.953046489368401267E-31, 2.789553195751075513E-32, -2.277843046414093615E-16 ) ) ;
#124 = ADVANCED_FACE ( 'NONE', ( #86 ), #177, .F. ) ;
#125 =( GEOMETRIC_REPRESENTATION_CONTEXT ( 3 ) GLOBAL_UNCERTAINTY_ASSIGNED_CONTEXT ( ( #48 ) ) GLOBAL_UNIT_ASSIGNED_CONTEXT ( ( #130, #151, #182 ) ) REPRESENTATION_CONTEXT ( 'NONE', 'WORKASPACE' ) );
#126 = PLANE ( 'NONE',  #96 ) ;
#127 = MANIFOLD_SOLID_BREP ( 'Corps-Déplacer/Copier1[2]', #7 ) ;
#128 = FACE_OUTER_BOUND ( 'NONE', #187, .T. ) ;
#129 = COORDINATED_UNIVERSAL_TIME_OFFSET ( 1, 0, .AHEAD. ) ;
#130 =( LENGTH_UNIT ( ) NAMED_UNIT ( * ) SI_UNIT ( .MILLI., .METRE. ) );
#131 = MANIFOLD_SOLID_BREP ( 'Corps-Déplacer/Copier1[1]', #201 ) ;
#132 = MECHANICAL_CONTEXT ( 'NONE', #21, 'mechanical' ) ;
#133 = EDGE_CURVE ( 'NONE', #135, #135, #139, .T. ) ;
#134 = CALENDAR_DATE ( 2021, 2, 12 ) ;
#135 = VERTEX_POINT ( 'NONE', #226 ) ;
#136 = LOCAL_TIME ( 13, 56, 24.00000000000000000, #129 ) ;
#137 = CALENDAR_DATE ( 2021, 2, 12 ) ;
#138 = ORIENTED_EDGE ( 'NONE', *, *, #149, .F. ) ;
#139 = CIRCLE ( 'NONE', #74, 2.000000000000000888 ) ;
#140 = CC_DESIGN_DATE_AND_TIME_ASSIGNMENT ( #72, #35, ( #5 ) ) ;
#141 = ORIENTED_EDGE ( 'NONE', *, *, #167, .T. ) ;
#142 = AXIS2_PLACEMENT_3D ( 'NONE', #157, #175, #155 ) ;
#143 = DIRECTION ( 'NONE',  ( 0.0000000000000000000, 1.000000000000000000, 0.0000000000000000000 ) ) ;
#144 = DIRECTION ( 'NONE',  ( -3.491481338843133355E-15, 1.224646799147353207E-16, -1.000000000000000000 ) ) ;
#145 = FACE_OUTER_BOUND ( 'NONE', #6, .T. ) ;
#146 = DIRECTION ( 'NONE',  ( 4.275831445896958607E-31, 1.000000000000000000, 1.224646799147353207E-16 ) ) ;
#147 = CYLINDRICAL_SURFACE ( 'NONE', #237, 1.999999999999996669 ) ;
#148 = PERSON_AND_ORGANIZATION_ROLE ( 'design_owner' ) ;
#149 = EDGE_CURVE ( 'NONE', #91, #91, #120, .T. ) ;
#150 = APPROVAL_ROLE ( '' ) ;
#151 =( NAMED_UNIT ( * ) PLANE_ANGLE_UNIT ( ) SI_UNIT ( $, .RADIAN. ) );
#152 = LOCAL_TIME ( 13, 56, 24.00000000000000000, #75 ) ;
#153 = PERSON_AND_ORGANIZATION_ROLE ( 'classification_officer' ) ;
#154 = EDGE_LOOP ( 'NONE', ( #58 ) ) ;
#155 = DIRECTION ( 'NONE',  ( 4.260906956608900147E-31, 1.000000000000000000, 1.199338686377762304E-16 ) ) ;
#156 = DIRECTION ( 'NONE',  ( 0.0000000000000000000, 1.000000000000000000, 0.0000000000000000000 ) ) ;
#157 = CARTESIAN_POINT ( 'NONE',  ( 1.396592535537252356E-15, -4.898587196589408761E-17, 0.3999999999999996891 ) ) ;
#158 = DIRECTION ( 'NONE',  ( -3.491481338843133355E-15, 1.224646799147353207E-16, -1.000000000000000000 ) ) ;
#159 = AXIS2_PLACEMENT_3D ( 'NONE', #161, #51, #200 ) ;
#160 = DIRECTION ( 'NONE',  ( -3.491481338843133355E-15, 1.224646799147353207E-16, -1.000000000000000000 ) ) ;
#161 = CARTESIAN_POINT ( 'NONE',  ( 0.0000000000000000000, 0.0000000000000000000, 0.0000000000000000000 ) ) ;
#162 = CIRCLE ( 'NONE', #142, 2.260000000000015330 ) ;
#163 = CONICAL_SURFACE ( 'NONE', #50, 1.860000000000013864, 0.7853981633974504994 ) ;
#164 = VERTEX_POINT ( 'NONE', #183 ) ;
#165 = DIRECTION ( 'NONE',  ( -3.491481338843133355E-15, 1.224646799147353207E-16, -1.000000000000000000 ) ) ;
#166 = PERSON_AND_ORGANIZATION ( #9, #2 ) ;
#167 = EDGE_CURVE ( 'NONE', #164, #164, #60, .T. ) ;
#168 = PERSON_AND_ORGANIZATION ( #9, #2 ) ;
#169 = AXIS2_PLACEMENT_3D ( 'NONE', #198, #14, #42 ) ;
#170 = ORIENTED_EDGE ( 'NONE', *, *, #111, .T. ) ;
#171 = EDGE_LOOP ( 'NONE', ( #4 ) ) ;
#172 = PLANE ( 'NONE',  #108 ) ;
#173 = DIRECTION ( 'NONE',  ( 0.0000000000000000000, 1.000000000000000000, 0.0000000000000000000 ) ) ;
#174 = AXIS2_PLACEMENT_3D ( 'NONE', #233, #144, #10 ) ;
#175 = DIRECTION ( 'NONE',  ( -3.491481338843133355E-15, 1.224646799147353207E-16, -1.000000000000000000 ) ) ;
#176 = PRODUCT ( '321678', '321678', '', ( #132 ) ) ;
#177 = PLANE ( 'NONE',  #229 ) ;
#178 = PLANE ( 'NONE',  #190 ) ;
#179 = SECURITY_CLASSIFICATION ( '', '', #95 ) ;
#180 = VERTEX_POINT ( 'NONE', #92 ) ;
#181 = VERTEX_POINT ( 'NONE', #49 ) ;
#182 =( NAMED_UNIT ( * ) SI_UNIT ( $, .STERADIAN. ) SOLID_ANGLE_UNIT ( ) );
#183 = CARTESIAN_POINT ( 'NONE',  ( 4.189777606611760026E-14, 2.260000000000013554, 12.00000000000000000 ) ) ;
#184 = PERSON_AND_ORGANIZATION ( #9, #2 ) ;
#185 = CIRCLE ( 'NONE', #222, 1.860000000000013864 ) ;
#186 = AXIS2_PLACEMENT_3D ( 'NONE', #84, #25, #156 ) ;
#187 = EDGE_LOOP ( 'NONE', ( #59 ) ) ;
#188 = ADVANCED_FACE ( 'NONE', ( #235, #15 ), #232, .T. ) ;
#189 = EDGE_LOOP ( 'NONE', ( #22 ) ) ;
#190 = AXIS2_PLACEMENT_3D ( 'NONE', #29, #122, #106 ) ;
#191 = PRODUCT_RELATED_PRODUCT_CATEGORY ( 'detail', '', ( #176 ) ) ;
#192 = CARTESIAN_POINT ( 'NONE',  ( 4.189777606611760026E-14, 1.694728554407908183E-32, 12.00000000000000000 ) ) ;
#193 = FACE_OUTER_BOUND ( 'NONE', #116, .T. ) ;
#194 = CARTESIAN_POINT ( 'NONE',  ( 2.779219145719134403E-13, -9.748188521212932624E-15, 79.60000000000000853 ) ) ;
#195 = APPROVAL_STATUS ( 'not_yet_approved' ) ;
#196 = APPLICATION_CONTEXT ( 'configuration controlled 3d designs of mechanical parts and assemblies' ) ;
#197 = DIRECTION ( 'NONE',  ( 4.275831445896958607E-31, 1.000000000000000000, 1.224646799147353207E-16 ) ) ;
#198 = CARTESIAN_POINT ( 'NONE',  ( 4.347010606498200980E-14, -1.524726071390523880E-15, 12.45033320996794757 ) ) ;
#199 = COORDINATED_UNIVERSAL_TIME_OFFSET ( 1, 0, .AHEAD. ) ;
#200 = DIRECTION ( 'NONE',  ( 1.000000000000000000, 0.0000000000000000000, 0.0000000000000000000 ) ) ;
#201 = CLOSED_SHELL ( 'NONE', ( #209, #239, #27, #188, #124 ) ) ;
#202 = CALENDAR_DATE ( 2021, 2, 12 ) ;
#203 = COORDINATED_UNIVERSAL_TIME_OFFSET ( 1, 0, .AHEAD. ) ;
#204 = PERSON_AND_ORGANIZATION ( #9, #2 ) ;
#205 = APPLICATION_PROTOCOL_DEFINITION ( 'international standard', 'config_control_design', 1994, #21 ) ;
#206 = PERSON_AND_ORGANIZATION ( #9, #2 ) ;
#207 = ORIENTED_EDGE ( 'NONE', *, *, #111, .F. ) ;
#208 = CC_DESIGN_APPROVAL ( #90, ( #16 ) ) ;
#209 = ADVANCED_FACE ( 'NONE', ( #63 ), #172, .F. ) ;
#210 = EDGE_LOOP ( 'NONE', ( #230 ) ) ;
#211 = LOCAL_TIME ( 13, 56, 24.00000000000000000, #203 ) ;
#212 = ADVANCED_FACE ( 'NONE', ( #64, #236 ), #163, .T. ) ;
#213 = DIRECTION ( 'NONE',  ( -3.491481338843133355E-15, 1.224646799147353207E-16, -1.000000000000000000 ) ) ;
#214 = DESIGN_CONTEXT ( 'detailed design', #196, 'design' ) ;
#215 = DIRECTION ( 'NONE',  ( 3.491481338843133355E-15, -1.224646799147353207E-16, 1.000000000000000000 ) ) ;
#216 = DIRECTION ( 'NONE',  ( 4.275831445896957731E-31, 1.000000000000000000, 1.224646799147352961E-16 ) ) ;
#217 = CIRCLE ( 'NONE', #169, 1.999999999999992228 ) ;
#218 = FACE_OUTER_BOUND ( 'NONE', #38, .T. ) ;
#219 = CARTESIAN_POINT ( 'NONE',  ( 2.793185071074506684E-13, -9.797174393178826052E-15, 80.00000000000000000 ) ) ;
#220 = CC_DESIGN_PERSON_AND_ORGANIZATION_ASSIGNMENT ( #184, #19, ( #16 ) ) ;
#221 = APPROVAL_STATUS ( 'not_yet_approved' ) ;
#222 = AXIS2_PLACEMENT_3D ( 'NONE', #82, #213, #216 ) ;
#223 = LOCAL_TIME ( 13, 56, 24.00000000000000000, #199 ) ;
#224 = APPROVAL_STATUS ( 'not_yet_approved' ) ;
#225 = CC_DESIGN_PERSON_AND_ORGANIZATION_ASSIGNMENT ( #168, #153, ( #179 ) ) ;
#226 = CARTESIAN_POINT ( 'NONE',  ( 2.779219145719134403E-13, 1.999999999999991340, 79.60000000000000853 ) ) ;
#227 = ORIENTED_EDGE ( 'NONE', *, *, #81, .T. ) ;
#228 = ORIENTED_EDGE ( 'NONE', *, *, #149, .T. ) ;
#229 = AXIS2_PLACEMENT_3D ( 'NONE', #231, #32, #87 ) ;
#230 = ORIENTED_EDGE ( 'NONE', *, *, #133, .F. ) ;
#231 = CARTESIAN_POINT ( 'NONE',  ( 2.793185071074506684E-13, 1.199807826129472128E-32, 80.00000000000000000 ) ) ;
#232 = CONICAL_SURFACE ( 'NONE', #30, 1.600000000000000977, 0.7853981633974512766 ) ;
#233 = CARTESIAN_POINT ( 'NONE',  ( 0.0000000000000000000, 0.0000000000000000000, 0.0000000000000000000 ) ) ;
#234 = ADVANCED_FACE ( 'NONE', ( #218 ), #126, .T. ) ;
#235 = FACE_OUTER_BOUND ( 'NONE', #210, .T. ) ;
#236 = FACE_BOUND ( 'NONE', #189, .T. ) ;
#237 = AXIS2_PLACEMENT_3D ( 'NONE', #68, #88, #146 ) ;
#238 = DIRECTION ( 'NONE',  ( 0.0000000000000000000, 1.000000000000000000, 0.0000000000000000000 ) ) ;
#239 = ADVANCED_FACE ( 'NONE', ( #31, #128 ), #66, .T. ) ;
#240 = DATE_AND_TIME ( #89, #11 ) ;
#241 = DIRECTION ( 'NONE',  ( 0.0000000000000000000, 1.000000000000000000, 0.0000000000000000000 ) ) ;
#242 = AXIS2_PLACEMENT_3D ( 'NONE', #107, #101, #26 ) ;
#243 = APPLICATION_PROTOCOL_DEFINITION ( 'international standard', 'config_control_design', 1994, #196 ) ;
ENDSEC;
END-ISO-10303-21;
