ISO-10303-21;
HEADER;
FILE_DESCRIPTION (( 'STEP AP203' ),
    '1' );
FILE_NAME ('321677.step',
    '2021-12-02T12:56:23',
    ( '' ),
    ( '' ),
    'SwSTEP 2.0',
    'SolidWorks 2019',
    '' );
FILE_SCHEMA (( 'CONFIG_CONTROL_DESIGN' ));
ENDSEC;

DATA;
#1 = PRODUCT ( '321677', '321677', '', ( #209 ) ) ;
#2 = FACE_BOUND ( 'NONE', #25, .T. ) ;
#3 = AXIS2_PLACEMENT_3D ( 'NONE', #91, #167, #73 ) ;
#4 = PERSON_AND_ORGANIZATION_ROLE ( 'creator' ) ;
#5 = CONICAL_SURFACE ( 'NONE', #53, 2.255000000000014992, 0.5235987755983003700 ) ;
#6 = CC_DESIGN_PERSON_AND_ORGANIZATION_ASSIGNMENT ( #124, #180, ( #8 ) ) ;
#7 = PERSON_AND_ORGANIZATION ( #181, #62 ) ;
#8 = SECURITY_CLASSIFICATION ( '', '', #85 ) ;
#9 = ORIENTED_EDGE ( 'NONE', *, *, #123, .F. ) ;
#10 = DATE_TIME_ROLE ( 'classification_date' ) ;
#11 = EDGE_LOOP ( 'NONE', ( #199 ) ) ;
#12 = AXIS2_PLACEMENT_3D ( 'NONE', #176, #137, #60 ) ;
#13 = ORIENTED_EDGE ( 'NONE', *, *, #113, .T. ) ;
#14 = DIRECTION ( 'NONE',  ( -4.275831445896958607E-31, -1.000000000000000000, -1.224646799147353207E-16 ) ) ;
#15 = DIRECTION ( 'NONE',  ( 0.0000000000000000000, 1.000000000000000000, 0.0000000000000000000 ) ) ;
#16 = AXIS2_PLACEMENT_3D ( 'NONE', #242, #35, #94 ) ;
#17 = DIRECTION ( 'NONE',  ( -3.491481338843133355E-15, 1.224646799147353207E-16, -1.000000000000000000 ) ) ;
#18 = DIRECTION ( 'NONE',  ( -4.275831445896958607E-31, -1.000000000000000000, -1.224646799147353207E-16 ) ) ;
#19 = LOCAL_TIME ( 13, 56, 23.00000000000000000, #190 ) ;
#20 = PERSON_AND_ORGANIZATION ( #181, #62 ) ;
#21 =( LENGTH_UNIT ( ) NAMED_UNIT ( * ) SI_UNIT ( .MILLI., .METRE. ) );
#22 = DATE_AND_TIME ( #212, #19 ) ;
#23 = AXIS2_PLACEMENT_3D ( 'NONE', #128, #112, #14 ) ;
#24 = CIRCLE ( 'NONE', #100, 1.855000000000013527 ) ;
#25 = EDGE_LOOP ( 'NONE', ( #140 ) ) ;
#26 = EDGE_LOOP ( 'NONE', ( #13 ) ) ;
#27 = CC_DESIGN_DATE_AND_TIME_ASSIGNMENT ( #194, #10, ( #8 ) ) ;
#28 = CONICAL_SURFACE ( 'NONE', #178, 1.855000000000013527, 0.7853981633974498333 ) ;
#29 = UNCERTAINTY_MEASURE_WITH_UNIT (LENGTH_MEASURE( 1.000000000000000082E-05 ), #21, 'distance_accuracy_value', 'NONE');
#30 = PLANE ( 'NONE',  #235 ) ;
#31 = DIRECTION ( 'NONE',  ( -3.491481338843133355E-15, 1.224646799147353207E-16, -1.000000000000000000 ) ) ;
#32 = CARTESIAN_POINT ( 'NONE',  ( 0.0000000000000000000, 0.0000000000000000000, 0.0000000000000000000 ) ) ;
#33 = CONICAL_SURFACE ( 'NONE', #206, 1.600000000000000977, 0.7853981633974512766 ) ;
#34 = DIRECTION ( 'NONE',  ( -3.491481338843133355E-15, 1.224646799147353207E-16, -1.000000000000000000 ) ) ;
#35 = DIRECTION ( 'NONE',  ( -3.491481338843133355E-15, 1.224646799147353207E-16, -1.000000000000000000 ) ) ;
#36 = MANIFOLD_SOLID_BREP ( 'Corps-Déplacer/Copier1[2]', #227 ) ;
#37 = PERSON_AND_ORGANIZATION ( #181, #62 ) ;
#38 = APPROVAL_STATUS ( 'not_yet_approved' ) ;
#39 = ADVANCED_FACE ( 'NONE', ( #238, #221 ), #54, .T. ) ;
#40 = CARTESIAN_POINT ( 'NONE',  ( 1.396592535537253737E-15, 2.255000000000014992, 0.4000000000000000777 ) ) ;
#41 = CARTESIAN_POINT ( 'NONE',  ( 4.189777606611760026E-14, 1.690979154951253786E-32, 12.00000000000000000 ) ) ;
#42 = AXIS2_PLACEMENT_3D ( 'NONE', #239, #68, #146 ) ;
#43 = CIRCLE ( 'NONE', #173, 2.255000000000014992 ) ;
#44 = APPLICATION_CONTEXT ( 'configuration controlled 3d designs of mechanical parts and assemblies' ) ;
#45 = EDGE_LOOP ( 'NONE', ( #165 ) ) ;
#46 = PRODUCT_DEFINITION ( 'UNKNOWN', '', #74, #89 ) ;
#47 = AXIS2_PLACEMENT_3D ( 'NONE', #71, #31, #87 ) ;
#48 = DIRECTION ( 'NONE',  ( 4.275831445896957731E-31, 1.000000000000000000, 1.224646799147352961E-16 ) ) ;
#49 = CC_DESIGN_PERSON_AND_ORGANIZATION_ASSIGNMENT ( #219, #161, ( #74 ) ) ;
#50 = FACE_OUTER_BOUND ( 'NONE', #143, .T. ) ;
#51 = DIRECTION ( 'NONE',  ( -3.491481338843133355E-15, 1.224646799147353207E-16, -1.000000000000000000 ) ) ;
#52 = CARTESIAN_POINT ( 'NONE',  ( 2.793185071074506684E-13, 1.199807826129472128E-32, 80.00000000000000000 ) ) ;
#53 = AXIS2_PLACEMENT_3D ( 'NONE', #208, #115, #15 ) ;
#54 = CYLINDRICAL_SURFACE ( 'NONE', #111, 2.255000000000014992 ) ;
#55 = APPLICATION_PROTOCOL_DEFINITION ( 'international standard', 'config_control_design', 1994, #44 ) ;
#56 = CC_DESIGN_DATE_AND_TIME_ASSIGNMENT ( #57, #192, ( #46 ) ) ;
#57 = DATE_AND_TIME ( #229, #153 ) ;
#58 = CC_DESIGN_APPROVAL ( #241, ( #46 ) ) ;
#59 = PERSON_AND_ORGANIZATION_ROLE ( 'design_owner' ) ;
#60 = DIRECTION ( 'NONE',  ( 1.000000000000000000, 0.0000000000000000000, 0.0000000000000000000 ) ) ;
#61 = APPROVAL_DATE_TIME ( #231, #241 ) ;
#62 = ORGANIZATION ( 'UNSPECIFIED', 'UNSPECIFIED', '' ) ;
#63 = PERSON_AND_ORGANIZATION_ROLE ( 'design_supplier' ) ;
#64 = CIRCLE ( 'NONE', #42, 2.255000000000014992 ) ;
#65 = ORIENTED_EDGE ( 'NONE', *, *, #113, .F. ) ;
#66 = COORDINATED_UNIVERSAL_TIME_OFFSET ( 1, 0, .AHEAD. ) ;
#67 = ORIENTED_EDGE ( 'NONE', *, *, #133, .T. ) ;
#68 = DIRECTION ( 'NONE',  ( -3.491481338843133355E-15, 1.224646799147353207E-16, -1.000000000000000000 ) ) ;
#69 = FACE_OUTER_BOUND ( 'NONE', #220, .T. ) ;
#70 = FACE_BOUND ( 'NONE', #104, .T. ) ;
#71 = CARTESIAN_POINT ( 'NONE',  ( 4.189777606611760026E-14, -1.469576158976823947E-15, 12.00000000000000000 ) ) ;
#72 = CC_DESIGN_PERSON_AND_ORGANIZATION_ASSIGNMENT ( #7, #59, ( #1 ) ) ;
#73 = DIRECTION ( 'NONE',  ( 0.0000000000000000000, 1.000000000000000000, 0.0000000000000000000 ) ) ;
#74 = PRODUCT_DEFINITION_FORMATION_WITH_SPECIFIED_SOURCE ( 'ANY', '', #1, .NOT_KNOWN. ) ;
#75 = CARTESIAN_POINT ( 'NONE',  ( 4.343986894961923475E-14, 1.999999999999990452, 12.44167295593010181 ) ) ;
#76 = CARTESIAN_POINT ( 'NONE',  ( 0.0000000000000000000, 1.855000000000013527, 0.0000000000000000000 ) ) ;
#77 = AXIS2_PLACEMENT_3D ( 'NONE', #207, #183, #243 ) ;
#78 = APPLICATION_PROTOCOL_DEFINITION ( 'international standard', 'config_control_design', 1994, #198 ) ;
#79 = EDGE_CURVE ( 'NONE', #158, #158, #96, .T. ) ;
#80 = EDGE_CURVE ( 'NONE', #159, #159, #184, .T. ) ;
#81 = EDGE_LOOP ( 'NONE', ( #86 ) ) ;
#82 = PERSON_AND_ORGANIZATION ( #181, #62 ) ;
#83 = ORIENTED_EDGE ( 'NONE', *, *, #92, .F. ) ;
#84 = AXIS2_PLACEMENT_3D ( 'NONE', #32, #169, #154 ) ;
#85 = SECURITY_CLASSIFICATION_LEVEL ( 'unclassified' ) ;
#86 = ORIENTED_EDGE ( 'NONE', *, *, #80, .F. ) ;
#87 = DIRECTION ( 'NONE',  ( 0.0000000000000000000, 1.000000000000000000, 0.0000000000000000000 ) ) ;
#88 = ADVANCED_FACE ( 'NONE', ( #109, #70 ), #28, .T. ) ;
#89 = DESIGN_CONTEXT ( 'detailed design', #198, 'design' ) ;
#90 = DIRECTION ( 'NONE',  ( -3.491481338843133355E-15, 1.224646799147353207E-16, -1.000000000000000000 ) ) ;
#91 = CARTESIAN_POINT ( 'NONE',  ( 2.793185071074506684E-13, -9.797174393178826052E-15, 80.00000000000000000 ) ) ;
#92 = EDGE_CURVE ( 'NONE', #230, #230, #188, .T. ) ;
#93 = DIRECTION ( 'NONE',  ( 0.0000000000000000000, 1.000000000000000000, 0.0000000000000000000 ) ) ;
#94 = DIRECTION ( 'NONE',  ( 0.0000000000000000000, 1.000000000000000000, 0.0000000000000000000 ) ) ;
#95 = CARTESIAN_POINT ( 'NONE',  ( 2.793185071074506684E-13, 1.599999999999991207, 80.00000000000000000 ) ) ;
#96 = CIRCLE ( 'NONE', #108, 1.999999999999992228 ) ;
#97 = APPROVAL_STATUS ( 'not_yet_approved' ) ;
#98 = COORDINATED_UNIVERSAL_TIME_OFFSET ( 1, 0, .AHEAD. ) ;
#99 =( NAMED_UNIT ( * ) PLANE_ANGLE_UNIT ( ) SI_UNIT ( $, .RADIAN. ) );
#100 = AXIS2_PLACEMENT_3D ( 'NONE', #132, #51, #129 ) ;
#101 = APPROVAL ( #38, 'UNSPECIFIED' ) ;
#102 = EDGE_LOOP ( 'NONE', ( #67 ) ) ;
#103 = PERSON_AND_ORGANIZATION ( #181, #62 ) ;
#104 = EDGE_LOOP ( 'NONE', ( #65 ) ) ;
#105 = APPROVAL_DATE_TIME ( #121, #156 ) ;
#106 = ORIENTED_EDGE ( 'NONE', *, *, #80, .T. ) ;
#107 = ORIENTED_EDGE ( 'NONE', *, *, #217, .T. ) ;
#108 = AXIS2_PLACEMENT_3D ( 'NONE', #225, #90, #93 ) ;
#109 = FACE_OUTER_BOUND ( 'NONE', #125, .T. ) ;
#110 = FACE_OUTER_BOUND ( 'NONE', #126, .T. ) ;
#111 = AXIS2_PLACEMENT_3D ( 'NONE', #204, #228, #48 ) ;
#112 = DIRECTION ( 'NONE',  ( 3.491481338843133355E-15, -1.224646799147353207E-16, 1.000000000000000000 ) ) ;
#113 = EDGE_CURVE ( 'NONE', #215, #215, #24, .T. ) ;
#114 = PLANE ( 'NONE',  #77 ) ;
#115 = DIRECTION ( 'NONE',  ( -3.491481338843133355E-15, 1.224646799147353207E-16, -1.000000000000000000 ) ) ;
#116 = APPROVAL_ROLE ( '' ) ;
#117 = APPROVAL_ROLE ( '' ) ;
#118 = ADVANCED_FACE ( 'NONE', ( #69 ), #171, .F. ) ;
#119 = AXIS2_PLACEMENT_3D ( 'NONE', #52, #34, #131 ) ;
#120 = LOCAL_TIME ( 13, 56, 23.00000000000000000, #163 ) ;
#121 = DATE_AND_TIME ( #141, #120 ) ;
#122 = ADVANCED_FACE ( 'NONE', ( #110 ), #130, .F. ) ;
#123 = EDGE_CURVE ( 'NONE', #138, #138, #157, .T. ) ;
#124 = PERSON_AND_ORGANIZATION ( #181, #62 ) ;
#125 = EDGE_LOOP ( 'NONE', ( #107 ) ) ;
#126 = EDGE_LOOP ( 'NONE', ( #200 ) ) ;
#127 = MANIFOLD_SOLID_BREP ( 'Corps-Déplacer/Copier1[1]', #195 ) ;
#128 = CARTESIAN_POINT ( 'NONE',  ( 4.189777606611760026E-14, 1.690979154951253786E-32, 12.00000000000000000 ) ) ;
#129 = DIRECTION ( 'NONE',  ( 4.275831445896958607E-31, 1.000000000000000000, 1.224646799147353207E-16 ) ) ;
#130 = PLANE ( 'NONE',  #23 ) ;
#131 = DIRECTION ( 'NONE',  ( 4.275831445896958607E-31, 1.000000000000000000, 1.224646799147353207E-16 ) ) ;
#132 = CARTESIAN_POINT ( 'NONE',  ( -7.931667332138916553E-31, 2.782054396837766170E-32, -2.271719812418356740E-16 ) ) ;
#133 = EDGE_CURVE ( 'NONE', #139, #139, #43, .T. ) ;
#134 =( NAMED_UNIT ( * ) SI_UNIT ( $, .STERADIAN. ) SOLID_ANGLE_UNIT ( ) );
#135 = PERSON_AND_ORGANIZATION ( #181, #62 ) ;
#136 = LOCAL_TIME ( 13, 56, 23.00000000000000000, #98 ) ;
#137 = DIRECTION ( 'NONE',  ( 0.0000000000000000000, 0.0000000000000000000, 1.000000000000000000 ) ) ;
#138 = VERTEX_POINT ( 'NONE', #95 ) ;
#139 = VERTEX_POINT ( 'NONE', #174 ) ;
#140 = ORIENTED_EDGE ( 'NONE', *, *, #123, .T. ) ;
#141 = CALENDAR_DATE ( 2021, 2, 12 ) ;
#142 = APPROVAL_STATUS ( 'not_yet_approved' ) ;
#143 = EDGE_LOOP ( 'NONE', ( #236 ) ) ;
#144 = APPROVAL_ROLE ( '' ) ;
#145 = SHAPE_DEFINITION_REPRESENTATION ( #170, #201 ) ;
#146 = DIRECTION ( 'NONE',  ( 4.270354643874108604E-31, 1.000000000000000000, 1.201997973930706416E-16 ) ) ;
#147 = LOCAL_TIME ( 13, 56, 23.00000000000000000, #66 ) ;
#148 = CC_DESIGN_APPROVAL ( #156, ( #8 ) ) ;
#149 = FACE_OUTER_BOUND ( 'NONE', #179, .T. ) ;
#150 = DIRECTION ( 'NONE',  ( 3.491481338843133355E-15, -1.224646799147353207E-16, 1.000000000000000000 ) ) ;
#151 = ADVANCED_FACE ( 'NONE', ( #166 ), #114, .T. ) ;
#152 = CYLINDRICAL_SURFACE ( 'NONE', #84, 1.999999999999996669 ) ;
#153 = LOCAL_TIME ( 13, 56, 23.00000000000000000, #155 ) ;
#154 = DIRECTION ( 'NONE',  ( 4.275831445896958607E-31, 1.000000000000000000, 1.224646799147353207E-16 ) ) ;
#155 = COORDINATED_UNIVERSAL_TIME_OFFSET ( 1, 0, .AHEAD. ) ;
#156 = APPROVAL ( #142, 'UNSPECIFIED' ) ;
#157 = CIRCLE ( 'NONE', #3, 1.600000000000000977 ) ;
#158 = VERTEX_POINT ( 'NONE', #75 ) ;
#159 = VERTEX_POINT ( 'NONE', #160 ) ;
#160 = CARTESIAN_POINT ( 'NONE',  ( 2.779219145719134403E-13, 1.999999999999991340, 79.60000000000000853 ) ) ;
#161 = PERSON_AND_ORGANIZATION_ROLE ( 'creator' ) ;
#162 = CC_DESIGN_APPROVAL ( #101, ( #74 ) ) ;
#163 = COORDINATED_UNIVERSAL_TIME_OFFSET ( 1, 0, .AHEAD. ) ;
#164 = CC_DESIGN_PERSON_AND_ORGANIZATION_ASSIGNMENT ( #103, #63, ( #74 ) ) ;
#165 = ORIENTED_EDGE ( 'NONE', *, *, #79, .T. ) ;
#166 = FACE_OUTER_BOUND ( 'NONE', #26, .T. ) ;
#167 = DIRECTION ( 'NONE',  ( -3.491481338843133355E-15, 1.224646799147353207E-16, -1.000000000000000000 ) ) ;
#168 = FACE_BOUND ( 'NONE', #45, .T. ) ;
#169 = DIRECTION ( 'NONE',  ( -3.491481338843133355E-15, 1.224646799147353207E-16, -1.000000000000000000 ) ) ;
#170 = PRODUCT_DEFINITION_SHAPE ( 'NONE', 'NONE',  #46 ) ;
#171 = PLANE ( 'NONE',  #119 ) ;
#172 = ADVANCED_FACE ( 'NONE', ( #168, #149 ), #5, .T. ) ;
#173 = AXIS2_PLACEMENT_3D ( 'NONE', #240, #17, #203 ) ;
#174 = CARTESIAN_POINT ( 'NONE',  ( 4.189777606611760026E-14, 2.255000000000013660, 12.00000000000000000 ) ) ;
#175 = CARTESIAN_POINT ( 'NONE',  ( 4.189777606611760026E-14, 2.255000000000013660, 12.00000000000000000 ) ) ;
#176 = CARTESIAN_POINT ( 'NONE',  ( 0.0000000000000000000, 0.0000000000000000000, 0.0000000000000000000 ) ) ;
#177 = APPROVAL_DATE_TIME ( #22, #101 ) ;
#178 = AXIS2_PLACEMENT_3D ( 'NONE', #226, #150, #18 ) ;
#179 = EDGE_LOOP ( 'NONE', ( #83 ) ) ;
#180 = PERSON_AND_ORGANIZATION_ROLE ( 'classification_officer' ) ;
#181 = PERSON ( 'UNSPECIFIED', 'UNSPECIFIED', 'UNSPECIFIED', ('UNSPECIFIED'), ('UNSPECIFIED'), ('UNSPECIFIED') ) ;
#182 = EDGE_LOOP ( 'NONE', ( #234 ) ) ;
#183 = DIRECTION ( 'NONE',  ( -3.491481338843133355E-15, 1.224646799147353207E-16, -1.000000000000000000 ) ) ;
#184 = CIRCLE ( 'NONE', #16, 2.000000000000000888 ) ;
#185 = FACE_OUTER_BOUND ( 'NONE', #196, .T. ) ;
#186 = FACE_OUTER_BOUND ( 'NONE', #81, .T. ) ;
#187 = CARTESIAN_POINT ( 'NONE',  ( 2.793185071074506684E-13, -9.797174393178826052E-15, 80.00000000000000000 ) ) ;
#188 = CIRCLE ( 'NONE', #47, 2.255000000000014992 ) ;
#189 = CALENDAR_DATE ( 2021, 2, 12 ) ;
#190 = COORDINATED_UNIVERSAL_TIME_OFFSET ( 1, 0, .AHEAD. ) ;
#191 = ADVANCED_FACE ( 'NONE', ( #186, #2 ), #33, .T. ) ;
#192 = DATE_TIME_ROLE ( 'creation_date' ) ;
#193 = DIRECTION ( 'NONE',  ( 3.491481338843133355E-15, -1.224646799147353207E-16, 1.000000000000000000 ) ) ;
#194 = DATE_AND_TIME ( #237, #147 ) ;
#195 = CLOSED_SHELL ( 'NONE', ( #122, #172, #197, #191, #118 ) ) ;
#196 = EDGE_LOOP ( 'NONE', ( #106 ) ) ;
#197 = ADVANCED_FACE ( 'NONE', ( #50, #185 ), #152, .T. ) ;
#198 = APPLICATION_CONTEXT ( 'configuration controlled 3d designs of mechanical parts and assemblies' ) ;
#199 = ORIENTED_EDGE ( 'NONE', *, *, #133, .F. ) ;
#200 = ORIENTED_EDGE ( 'NONE', *, *, #92, .T. ) ;
#201 = ADVANCED_BREP_SHAPE_REPRESENTATION ( '321677', ( #127, #36, #12 ), #223 ) ;
#202 = APPROVAL_PERSON_ORGANIZATION ( #37, #241, #116 ) ;
#203 = DIRECTION ( 'NONE',  ( 0.0000000000000000000, 1.000000000000000000, 0.0000000000000000000 ) ) ;
#204 = CARTESIAN_POINT ( 'NONE',  ( 0.0000000000000000000, 0.0000000000000000000, 0.0000000000000000000 ) ) ;
#205 = DIRECTION ( 'NONE',  ( -3.491481338843133355E-15, 1.224646799147353207E-16, -1.000000000000000000 ) ) ;
#206 = AXIS2_PLACEMENT_3D ( 'NONE', #187, #205, #224 ) ;
#207 = CARTESIAN_POINT ( 'NONE',  ( -3.965833666069458276E-31, 1.391027198418883085E-32, -1.135859906209178370E-16 ) ) ;
#208 = CARTESIAN_POINT ( 'NONE',  ( 4.189777606611760026E-14, -1.469576158976823947E-15, 12.00000000000000000 ) ) ;
#209 = MECHANICAL_CONTEXT ( 'NONE', #44, 'mechanical' ) ;
#210 = APPROVAL_PERSON_ORGANIZATION ( #82, #156, #144 ) ;
#211 = DIRECTION ( 'NONE',  ( -4.275831445896958607E-31, -1.000000000000000000, -1.224646799147353207E-16 ) ) ;
#212 = CALENDAR_DATE ( 2021, 2, 12 ) ;
#213 = VERTEX_POINT ( 'NONE', #40 ) ;
#214 = PRODUCT_RELATED_PRODUCT_CATEGORY ( 'detail', '', ( #1 ) ) ;
#215 = VERTEX_POINT ( 'NONE', #76 ) ;
#216 = CC_DESIGN_SECURITY_CLASSIFICATION ( #8, ( #74 ) ) ;
#217 = EDGE_CURVE ( 'NONE', #213, #213, #64, .T. ) ;
#218 = CC_DESIGN_PERSON_AND_ORGANIZATION_ASSIGNMENT ( #20, #4, ( #46 ) ) ;
#219 = PERSON_AND_ORGANIZATION ( #181, #62 ) ;
#220 = EDGE_LOOP ( 'NONE', ( #9 ) ) ;
#221 = FACE_OUTER_BOUND ( 'NONE', #182, .T. ) ;
#222 = FACE_OUTER_BOUND ( 'NONE', #11, .T. ) ;
#223 =( GEOMETRIC_REPRESENTATION_CONTEXT ( 3 ) GLOBAL_UNCERTAINTY_ASSIGNED_CONTEXT ( ( #29 ) ) GLOBAL_UNIT_ASSIGNED_CONTEXT ( ( #21, #99, #134 ) ) REPRESENTATION_CONTEXT ( 'NONE', 'WORKASPACE' ) );
#224 = DIRECTION ( 'NONE',  ( 0.0000000000000000000, 1.000000000000000000, 0.0000000000000000000 ) ) ;
#225 = CARTESIAN_POINT ( 'NONE',  ( 4.343986894961923475E-14, -1.523665496151798639E-15, 12.44167295593010181 ) ) ;
#226 = CARTESIAN_POINT ( 'NONE',  ( -7.931667332138916553E-31, 2.782054396837766170E-32, -2.271719812418356740E-16 ) ) ;
#227 = CLOSED_SHELL ( 'NONE', ( #39, #233, #151, #88 ) ) ;
#228 = DIRECTION ( 'NONE',  ( -3.491481338843133355E-15, 1.224646799147353207E-16, -1.000000000000000000 ) ) ;
#229 = CALENDAR_DATE ( 2021, 2, 12 ) ;
#230 = VERTEX_POINT ( 'NONE', #175 ) ;
#231 = DATE_AND_TIME ( #189, #136 ) ;
#232 = APPROVAL_PERSON_ORGANIZATION ( #135, #101, #117 ) ;
#233 = ADVANCED_FACE ( 'NONE', ( #222 ), #30, .T. ) ;
#234 = ORIENTED_EDGE ( 'NONE', *, *, #217, .F. ) ;
#235 = AXIS2_PLACEMENT_3D ( 'NONE', #41, #193, #211 ) ;
#236 = ORIENTED_EDGE ( 'NONE', *, *, #79, .F. ) ;
#237 = CALENDAR_DATE ( 2021, 2, 12 ) ;
#238 = FACE_OUTER_BOUND ( 'NONE', #102, .T. ) ;
#239 = CARTESIAN_POINT ( 'NONE',  ( 1.396592535537252750E-15, -4.898587196589410610E-17, 0.3999999999999998002 ) ) ;
#240 = CARTESIAN_POINT ( 'NONE',  ( 4.189777606611760026E-14, -1.469576158976823947E-15, 12.00000000000000000 ) ) ;
#241 = APPROVAL ( #97, 'UNSPECIFIED' ) ;
#242 = CARTESIAN_POINT ( 'NONE',  ( 2.779219145719134403E-13, -9.748188521212932624E-15, 79.60000000000000853 ) ) ;
#243 = DIRECTION ( 'NONE',  ( 4.275831445896958607E-31, 1.000000000000000000, 1.224646799147353207E-16 ) ) ;
ENDSEC;
END-ISO-10303-21;
