ISO-10303-21;
HEADER;
FILE_DESCRIPTION (( 'STEP AP203' ),
    '1' );
FILE_NAME ('321676.step',
    '2021-12-02T12:56:22',
    ( '' ),
    ( '' ),
    'SwSTEP 2.0',
    'SolidWorks 2019',
    '' );
FILE_SCHEMA (( 'CONFIG_CONTROL_DESIGN' ));
ENDSEC;

DATA;
#1 = CARTESIAN_POINT ( 'NONE',  ( 2.779219145719134403E-13, -9.748188521212932624E-15, 79.60000000000000853 ) ) ;
#2 = AXIS2_PLACEMENT_3D ( 'NONE', #6, #133, #228 ) ;
#3 = DIRECTION ( 'NONE',  ( 4.275831445896958607E-31, 1.000000000000000000, 1.224646799147353207E-16 ) ) ;
#4 = PRODUCT_DEFINITION_FORMATION_WITH_SPECIFIED_SOURCE ( 'ANY', '', #79, .NOT_KNOWN. ) ;
#5 = PLANE ( 'NONE',  #41 ) ;
#6 = CARTESIAN_POINT ( 'NONE',  ( 4.189777606611760026E-14, -1.469576158976823947E-15, 12.00000000000000000 ) ) ;
#7 = CARTESIAN_POINT ( 'NONE',  ( 4.189777606611760026E-14, -1.469576158976823947E-15, 12.00000000000000000 ) ) ;
#8 = PERSON_AND_ORGANIZATION_ROLE ( 'design_owner' ) ;
#9 = DATE_AND_TIME ( #61, #176 ) ;
#10 = DATE_TIME_ROLE ( 'creation_date' ) ;
#11 = APPLICATION_PROTOCOL_DEFINITION ( 'international standard', 'config_control_design', 1994, #163 ) ;
#12 = PERSON_AND_ORGANIZATION ( #64, #87 ) ;
#13 = PERSON_AND_ORGANIZATION_ROLE ( 'design_supplier' ) ;
#14 = DIRECTION ( 'NONE',  ( 3.491481338843133355E-15, -1.224646799147353207E-16, 1.000000000000000000 ) ) ;
#15 = APPROVAL_ROLE ( '' ) ;
#16 = DIRECTION ( 'NONE',  ( -3.491481338843133355E-15, 1.224646799147353207E-16, -1.000000000000000000 ) ) ;
#17 = PRODUCT_DEFINITION_SHAPE ( 'NONE', 'NONE',  #56 ) ;
#18 = EDGE_CURVE ( 'NONE', #48, #48, #55, .T. ) ;
#19 = FACE_OUTER_BOUND ( 'NONE', #103, .T. ) ;
#20 = FACE_OUTER_BOUND ( 'NONE', #143, .T. ) ;
#21 = DIRECTION ( 'NONE',  ( -3.491481338843133355E-15, 1.224646799147353207E-16, -1.000000000000000000 ) ) ;
#22 = CALENDAR_DATE ( 2021, 2, 12 ) ;
#23 = CLOSED_SHELL ( 'NONE', ( #37, #34, #207, #242, #109 ) ) ;
#24 = VERTEX_POINT ( 'NONE', #66 ) ;
#25 = DATE_AND_TIME ( #180, #155 ) ;
#26 = EDGE_LOOP ( 'NONE', ( #218 ) ) ;
#27 = CONICAL_SURFACE ( 'NONE', #192, 1.850000000000013634, 0.7853981633974498333 ) ;
#28 = APPROVAL_STATUS ( 'not_yet_approved' ) ;
#29 = EDGE_LOOP ( 'NONE', ( #105 ) ) ;
#30 = DESIGN_CONTEXT ( 'detailed design', #163, 'design' ) ;
#31 = ORIENTED_EDGE ( 'NONE', *, *, #184, .F. ) ;
#32 = EDGE_LOOP ( 'NONE', ( #47 ) ) ;
#33 = CC_DESIGN_APPROVAL ( #38, ( #4 ) ) ;
#34 = ADVANCED_FACE ( 'NONE', ( #169, #114 ), #115, .T. ) ;
#35 = DIRECTION ( 'NONE',  ( 4.275831445896958607E-31, 1.000000000000000000, 1.224646799147353207E-16 ) ) ;
#36 = FACE_OUTER_BOUND ( 'NONE', #26, .T. ) ;
#37 = ADVANCED_FACE ( 'NONE', ( #118 ), #189, .F. ) ;
#38 = APPROVAL ( #28, 'UNSPECIFIED' ) ;
#39 = FACE_BOUND ( 'NONE', #32, .T. ) ;
#40 = FACE_OUTER_BOUND ( 'NONE', #202, .T. ) ;
#41 = AXIS2_PLACEMENT_3D ( 'NONE', #131, #78, #211 ) ;
#42 = SECURITY_CLASSIFICATION ( '', '', #186 ) ;
#43 = DIRECTION ( 'NONE',  ( 4.279844320860495119E-31, 1.000000000000000000, 1.204669080539441209E-16 ) ) ;
#44 = CC_DESIGN_DATE_AND_TIME_ASSIGNMENT ( #92, #219, ( #42 ) ) ;
#45 = CLOSED_SHELL ( 'NONE', ( #159, #214, #88, #72 ) ) ;
#46 =( LENGTH_UNIT ( ) NAMED_UNIT ( * ) SI_UNIT ( .MILLI., .METRE. ) );
#47 = ORIENTED_EDGE ( 'NONE', *, *, #178, .T. ) ;
#48 = VERTEX_POINT ( 'NONE', #179 ) ;
#49 = EDGE_LOOP ( 'NONE', ( #238 ) ) ;
#50 = PERSON_AND_ORGANIZATION ( #64, #87 ) ;
#51 = EDGE_LOOP ( 'NONE', ( #145 ) ) ;
#52 = DIRECTION ( 'NONE',  ( -4.275831445896958607E-31, -1.000000000000000000, -1.224646799147353207E-16 ) ) ;
#53 = CARTESIAN_POINT ( 'NONE',  ( -7.910288174909431839E-31, 2.774555597924457375E-32, -2.265596578422620357E-16 ) ) ;
#54 = CYLINDRICAL_SURFACE ( 'NONE', #230, 2.250000000000015099 ) ;
#55 = CIRCLE ( 'NONE', #187, 1.999999999999992228 ) ;
#56 = PRODUCT_DEFINITION ( 'UNKNOWN', '', #4, #30 ) ;
#57 = FACE_OUTER_BOUND ( 'NONE', #147, .T. ) ;
#58 = CC_DESIGN_PERSON_AND_ORGANIZATION_ASSIGNMENT ( #12, #13, ( #4 ) ) ;
#59 = CARTESIAN_POINT ( 'NONE',  ( 4.189777606611760026E-14, -1.469576158976823947E-15, 12.00000000000000000 ) ) ;
#60 = VERTEX_POINT ( 'NONE', #157 ) ;
#61 = CALENDAR_DATE ( 2021, 2, 12 ) ;
#62 = PERSON_AND_ORGANIZATION ( #64, #87 ) ;
#63 = APPLICATION_PROTOCOL_DEFINITION ( 'international standard', 'config_control_design', 1994, #127 ) ;
#64 = PERSON ( 'UNSPECIFIED', 'UNSPECIFIED', 'UNSPECIFIED', ('UNSPECIFIED'), ('UNSPECIFIED'), ('UNSPECIFIED') ) ;
#65 = EDGE_LOOP ( 'NONE', ( #107 ) ) ;
#66 = CARTESIAN_POINT ( 'NONE',  ( 1.396592535537253737E-15, 2.250000000000015099, 0.4000000000000000777 ) ) ;
#67 = EDGE_LOOP ( 'NONE', ( #125 ) ) ;
#68 = CARTESIAN_POINT ( 'NONE',  ( 4.340963183425646602E-14, -1.522604920913073792E-15, 12.43301270189225782 ) ) ;
#69 = CIRCLE ( 'NONE', #223, 1.850000000000013634 ) ;
#70 = APPROVAL_DATE_TIME ( #222, #104 ) ;
#71 = ORIENTED_EDGE ( 'NONE', *, *, #227, .F. ) ;
#72 = ADVANCED_FACE ( 'NONE', ( #40, #136 ), #27, .T. ) ;
#73 = EDGE_LOOP ( 'NONE', ( #204 ) ) ;
#74 = DIRECTION ( 'NONE',  ( 0.0000000000000000000, 1.000000000000000000, 0.0000000000000000000 ) ) ;
#75 = AXIS2_PLACEMENT_3D ( 'NONE', #229, #14, #170 ) ;
#76 = COORDINATED_UNIVERSAL_TIME_OFFSET ( 1, 0, .AHEAD. ) ;
#77 = CIRCLE ( 'NONE', #137, 2.250000000000015099 ) ;
#78 = DIRECTION ( 'NONE',  ( -3.491481338843133355E-15, 1.224646799147353207E-16, -1.000000000000000000 ) ) ;
#79 = PRODUCT ( '321676', '321676', '', ( #124 ) ) ;
#80 = CARTESIAN_POINT ( 'NONE',  ( 4.189777606611760026E-14, 1.687229755494599114E-32, 12.00000000000000000 ) ) ;
#81 = PLANE ( 'NONE',  #75 ) ;
#82 = DIRECTION ( 'NONE',  ( -3.491481338843133355E-15, 1.224646799147353207E-16, -1.000000000000000000 ) ) ;
#83 = CARTESIAN_POINT ( 'NONE',  ( 4.189777606611760026E-14, 2.250000000000013767, 12.00000000000000000 ) ) ;
#84 =( NAMED_UNIT ( * ) SI_UNIT ( $, .STERADIAN. ) SOLID_ANGLE_UNIT ( ) );
#85 = APPROVAL_DATE_TIME ( #25, #38 ) ;
#86 = CIRCLE ( 'NONE', #212, 2.000000000000000888 ) ;
#87 = ORGANIZATION ( 'UNSPECIFIED', 'UNSPECIFIED', '' ) ;
#88 = ADVANCED_FACE ( 'NONE', ( #20 ), #5, .T. ) ;
#89 = DIRECTION ( 'NONE',  ( 0.0000000000000000000, 1.000000000000000000, 0.0000000000000000000 ) ) ;
#90 = CIRCLE ( 'NONE', #113, 1.600000000000000977 ) ;
#91 = SHAPE_DEFINITION_REPRESENTATION ( #17, #168 ) ;
#92 = DATE_AND_TIME ( #106, #188 ) ;
#93 = DIRECTION ( 'NONE',  ( -3.491481338843133355E-15, 1.224646799147353207E-16, -1.000000000000000000 ) ) ;
#94 = PERSON_AND_ORGANIZATION ( #64, #87 ) ;
#95 = FACE_OUTER_BOUND ( 'NONE', #67, .T. ) ;
#96 = EDGE_CURVE ( 'NONE', #231, #231, #86, .T. ) ;
#97 = DIRECTION ( 'NONE',  ( 0.0000000000000000000, 1.000000000000000000, 0.0000000000000000000 ) ) ;
#98 = DIRECTION ( 'NONE',  ( -3.491481338843133355E-15, 1.224646799147353207E-16, -1.000000000000000000 ) ) ;
#99 = DIRECTION ( 'NONE',  ( 0.0000000000000000000, 1.000000000000000000, 0.0000000000000000000 ) ) ;
#100 = VERTEX_POINT ( 'NONE', #139 ) ;
#101 = COORDINATED_UNIVERSAL_TIME_OFFSET ( 1, 0, .AHEAD. ) ;
#102 = CC_DESIGN_PERSON_AND_ORGANIZATION_ASSIGNMENT ( #119, #8, ( #79 ) ) ;
#103 = EDGE_LOOP ( 'NONE', ( #71 ) ) ;
#104 = APPROVAL ( #239, 'UNSPECIFIED' ) ;
#105 = ORIENTED_EDGE ( 'NONE', *, *, #235, .T. ) ;
#106 = CALENDAR_DATE ( 2021, 2, 12 ) ;
#107 = ORIENTED_EDGE ( 'NONE', *, *, #198, .T. ) ;
#108 = AXIS2_PLACEMENT_3D ( 'NONE', #120, #215, #200 ) ;
#109 = ADVANCED_FACE ( 'NONE', ( #190 ), #174, .F. ) ;
#110 = CYLINDRICAL_SURFACE ( 'NONE', #171, 1.999999999999996669 ) ;
#111 = MANIFOLD_SOLID_BREP ( 'Corps-Déplacer/Copier1[2]', #45 ) ;
#112 = DIRECTION ( 'NONE',  ( -3.491481338843133355E-15, 1.224646799147353207E-16, -1.000000000000000000 ) ) ;
#113 = AXIS2_PLACEMENT_3D ( 'NONE', #206, #21, #99 ) ;
#114 = FACE_OUTER_BOUND ( 'NONE', #51, .T. ) ;
#115 = CONICAL_SURFACE ( 'NONE', #132, 2.250000000000015099, 0.5235987755982998149 ) ;
#116 = AXIS2_PLACEMENT_3D ( 'NONE', #226, #93, #43 ) ;
#117 = DIRECTION ( 'NONE',  ( 3.491481338843133355E-15, -1.224646799147353207E-16, 1.000000000000000000 ) ) ;
#118 = FACE_OUTER_BOUND ( 'NONE', #29, .T. ) ;
#119 = PERSON_AND_ORGANIZATION ( #64, #87 ) ;
#120 = CARTESIAN_POINT ( 'NONE',  ( 0.0000000000000000000, 0.0000000000000000000, 0.0000000000000000000 ) ) ;
#121 = LOCAL_TIME ( 13, 56, 22.00000000000000000, #203 ) ;
#122 = APPROVAL_ROLE ( '' ) ;
#123 = ORIENTED_EDGE ( 'NONE', *, *, #18, .F. ) ;
#124 = MECHANICAL_CONTEXT ( 'NONE', #127, 'mechanical' ) ;
#125 = ORIENTED_EDGE ( 'NONE', *, *, #198, .F. ) ;
#126 = CARTESIAN_POINT ( 'NONE',  ( 0.0000000000000000000, 1.850000000000013634, 0.0000000000000000000 ) ) ;
#127 = APPLICATION_CONTEXT ( 'configuration controlled 3d designs of mechanical parts and assemblies' ) ;
#128 = CIRCLE ( 'NONE', #116, 2.250000000000015099 ) ;
#129 = UNCERTAINTY_MEASURE_WITH_UNIT (LENGTH_MEASURE( 1.000000000000000082E-05 ), #46, 'distance_accuracy_value', 'NONE');
#130 = ORIENTED_EDGE ( 'NONE', *, *, #227, .T. ) ;
#131 = CARTESIAN_POINT ( 'NONE',  ( -3.955144087454715919E-31, 1.387277798962228688E-32, -1.132798289211310178E-16 ) ) ;
#132 = AXIS2_PLACEMENT_3D ( 'NONE', #7, #138, #97 ) ;
#133 = DIRECTION ( 'NONE',  ( -3.491481338843133355E-15, 1.224646799147353207E-16, -1.000000000000000000 ) ) ;
#134 = DIRECTION ( 'NONE',  ( -3.491481338843133355E-15, 1.224646799147353207E-16, -1.000000000000000000 ) ) ;
#135 = CC_DESIGN_APPROVAL ( #104, ( #42 ) ) ;
#136 = FACE_BOUND ( 'NONE', #241, .T. ) ;
#137 = AXIS2_PLACEMENT_3D ( 'NONE', #59, #134, #175 ) ;
#138 = DIRECTION ( 'NONE',  ( -3.491481338843133355E-15, 1.224646799147353207E-16, -1.000000000000000000 ) ) ;
#139 = CARTESIAN_POINT ( 'NONE',  ( 2.793185071074506684E-13, 1.599999999999991207, 80.00000000000000000 ) ) ;
#140 = VERTEX_POINT ( 'NONE', #126 ) ;
#141 =( GEOMETRIC_REPRESENTATION_CONTEXT ( 3 ) GLOBAL_UNCERTAINTY_ASSIGNED_CONTEXT ( ( #129 ) ) GLOBAL_UNIT_ASSIGNED_CONTEXT ( ( #46, #162, #84 ) ) REPRESENTATION_CONTEXT ( 'NONE', 'WORKASPACE' ) );
#142 = CARTESIAN_POINT ( 'NONE',  ( 2.779219145719134403E-13, 1.999999999999991340, 79.60000000000000853 ) ) ;
#143 = EDGE_LOOP ( 'NONE', ( #220 ) ) ;
#144 = PERSON_AND_ORGANIZATION ( #64, #87 ) ;
#145 = ORIENTED_EDGE ( 'NONE', *, *, #235, .F. ) ;
#146 = ORIENTED_EDGE ( 'NONE', *, *, #178, .F. ) ;
#147 = EDGE_LOOP ( 'NONE', ( #123 ) ) ;
#148 = DIRECTION ( 'NONE',  ( -3.491481338843133355E-15, 1.224646799147353207E-16, -1.000000000000000000 ) ) ;
#149 = AXIS2_PLACEMENT_3D ( 'NONE', #156, #233, #89 ) ;
#150 = CARTESIAN_POINT ( 'NONE',  ( 0.0000000000000000000, 0.0000000000000000000, 0.0000000000000000000 ) ) ;
#151 = DIRECTION ( 'NONE',  ( -4.275831445896958607E-31, -1.000000000000000000, -1.224646799147353207E-16 ) ) ;
#152 = CC_DESIGN_PERSON_AND_ORGANIZATION_ASSIGNMENT ( #185, #158, ( #56 ) ) ;
#153 = DIRECTION ( 'NONE',  ( -3.491481338843133355E-15, 1.224646799147353207E-16, -1.000000000000000000 ) ) ;
#154 = CC_DESIGN_PERSON_AND_ORGANIZATION_ASSIGNMENT ( #243, #209, ( #42 ) ) ;
#155 = LOCAL_TIME ( 13, 56, 22.00000000000000000, #201 ) ;
#156 = CARTESIAN_POINT ( 'NONE',  ( 2.793185071074506684E-13, -9.797174393178826052E-15, 80.00000000000000000 ) ) ;
#157 = CARTESIAN_POINT ( 'NONE',  ( 4.189777606611760026E-14, 2.250000000000013767, 12.00000000000000000 ) ) ;
#158 = PERSON_AND_ORGANIZATION_ROLE ( 'creator' ) ;
#159 = ADVANCED_FACE ( 'NONE', ( #225, #19 ), #54, .T. ) ;
#160 = APPROVAL_STATUS ( 'not_yet_approved' ) ;
#161 = AXIS2_PLACEMENT_3D ( 'NONE', #80, #117, #151 ) ;
#162 =( NAMED_UNIT ( * ) PLANE_ANGLE_UNIT ( ) SI_UNIT ( $, .RADIAN. ) );
#163 = APPLICATION_CONTEXT ( 'configuration controlled 3d designs of mechanical parts and assemblies' ) ;
#164 = COORDINATED_UNIVERSAL_TIME_OFFSET ( 1, 0, .AHEAD. ) ;
#165 = PERSON_AND_ORGANIZATION_ROLE ( 'creator' ) ;
#166 = APPROVAL_PERSON_ORGANIZATION ( #144, #217, #199 ) ;
#167 = CC_DESIGN_PERSON_AND_ORGANIZATION_ASSIGNMENT ( #50, #165, ( #4 ) ) ;
#168 = ADVANCED_BREP_SHAPE_REPRESENTATION ( '321676', ( #197, #111, #108 ), #141 ) ;
#169 = FACE_BOUND ( 'NONE', #49, .T. ) ;
#170 = DIRECTION ( 'NONE',  ( -4.275831445896958607E-31, -1.000000000000000000, -1.224646799147353207E-16 ) ) ;
#171 = AXIS2_PLACEMENT_3D ( 'NONE', #150, #16, #213 ) ;
#172 = LOCAL_TIME ( 13, 56, 22.00000000000000000, #76 ) ;
#173 = DIRECTION ( 'NONE',  ( 4.275831445896958607E-31, 1.000000000000000000, 1.224646799147353207E-16 ) ) ;
#174 = PLANE ( 'NONE',  #182 ) ;
#175 = DIRECTION ( 'NONE',  ( 0.0000000000000000000, 1.000000000000000000, 0.0000000000000000000 ) ) ;
#176 = LOCAL_TIME ( 13, 56, 22.00000000000000000, #101 ) ;
#177 = VERTEX_POINT ( 'NONE', #83 ) ;
#178 = EDGE_CURVE ( 'NONE', #100, #100, #90, .T. ) ;
#179 = CARTESIAN_POINT ( 'NONE',  ( 4.340963183425646602E-14, 1.999999999999990452, 12.43301270189225782 ) ) ;
#180 = CALENDAR_DATE ( 2021, 2, 12 ) ;
#181 = EDGE_LOOP ( 'NONE', ( #146 ) ) ;
#182 = AXIS2_PLACEMENT_3D ( 'NONE', #196, #148, #3 ) ;
#183 = CC_DESIGN_SECURITY_CLASSIFICATION ( #42, ( #4 ) ) ;
#184 = EDGE_CURVE ( 'NONE', #140, #140, #69, .T. ) ;
#185 = PERSON_AND_ORGANIZATION ( #64, #87 ) ;
#186 = SECURITY_CLASSIFICATION_LEVEL ( 'unclassified' ) ;
#187 = AXIS2_PLACEMENT_3D ( 'NONE', #68, #112, #221 ) ;
#188 = LOCAL_TIME ( 13, 56, 22.00000000000000000, #164 ) ;
#189 = PLANE ( 'NONE',  #161 ) ;
#190 = FACE_OUTER_BOUND ( 'NONE', #181, .T. ) ;
#191 = CALENDAR_DATE ( 2021, 2, 12 ) ;
#192 = AXIS2_PLACEMENT_3D ( 'NONE', #194, #195, #52 ) ;
#193 = CC_DESIGN_APPROVAL ( #217, ( #56 ) ) ;
#194 = CARTESIAN_POINT ( 'NONE',  ( -7.910288174909431839E-31, 2.774555597924457375E-32, -2.265596578422620357E-16 ) ) ;
#195 = DIRECTION ( 'NONE',  ( 3.491481338843133355E-15, -1.224646799147353207E-16, 1.000000000000000000 ) ) ;
#196 = CARTESIAN_POINT ( 'NONE',  ( 2.793185071074506684E-13, 1.199807826129472128E-32, 80.00000000000000000 ) ) ;
#197 = MANIFOLD_SOLID_BREP ( 'Corps-Déplacer/Copier1[1]', #23 ) ;
#198 = EDGE_CURVE ( 'NONE', #177, #177, #205, .T. ) ;
#199 = APPROVAL_ROLE ( '' ) ;
#200 = DIRECTION ( 'NONE',  ( 1.000000000000000000, 0.0000000000000000000, 0.0000000000000000000 ) ) ;
#201 = COORDINATED_UNIVERSAL_TIME_OFFSET ( 1, 0, .AHEAD. ) ;
#202 = EDGE_LOOP ( 'NONE', ( #130 ) ) ;
#203 = COORDINATED_UNIVERSAL_TIME_OFFSET ( 1, 0, .AHEAD. ) ;
#204 = ORIENTED_EDGE ( 'NONE', *, *, #96, .F. ) ;
#205 = CIRCLE ( 'NONE', #2, 2.250000000000015099 ) ;
#206 = CARTESIAN_POINT ( 'NONE',  ( 2.793185071074506684E-13, -9.797174393178826052E-15, 80.00000000000000000 ) ) ;
#207 = ADVANCED_FACE ( 'NONE', ( #57, #36 ), #110, .T. ) ;
#208 = CARTESIAN_POINT ( 'NONE',  ( 0.0000000000000000000, 0.0000000000000000000, 0.0000000000000000000 ) ) ;
#209 = PERSON_AND_ORGANIZATION_ROLE ( 'classification_officer' ) ;
#210 = FACE_OUTER_BOUND ( 'NONE', #73, .T. ) ;
#211 = DIRECTION ( 'NONE',  ( 4.275831445896958607E-31, 1.000000000000000000, 1.224646799147353207E-16 ) ) ;
#212 = AXIS2_PLACEMENT_3D ( 'NONE', #1, #82, #74 ) ;
#213 = DIRECTION ( 'NONE',  ( 4.275831445896958607E-31, 1.000000000000000000, 1.224646799147353207E-16 ) ) ;
#214 = ADVANCED_FACE ( 'NONE', ( #95 ), #81, .T. ) ;
#215 = DIRECTION ( 'NONE',  ( 0.0000000000000000000, 0.0000000000000000000, 1.000000000000000000 ) ) ;
#216 = APPROVAL_PERSON_ORGANIZATION ( #94, #104, #15 ) ;
#217 = APPROVAL ( #160, 'UNSPECIFIED' ) ;
#218 = ORIENTED_EDGE ( 'NONE', *, *, #96, .T. ) ;
#219 = DATE_TIME_ROLE ( 'classification_date' ) ;
#220 = ORIENTED_EDGE ( 'NONE', *, *, #184, .T. ) ;
#221 = DIRECTION ( 'NONE',  ( 0.0000000000000000000, 1.000000000000000000, 0.0000000000000000000 ) ) ;
#222 = DATE_AND_TIME ( #191, #172 ) ;
#223 = AXIS2_PLACEMENT_3D ( 'NONE', #53, #98, #35 ) ;
#224 = APPROVAL_PERSON_ORGANIZATION ( #62, #38, #122 ) ;
#225 = FACE_OUTER_BOUND ( 'NONE', #65, .T. ) ;
#226 = CARTESIAN_POINT ( 'NONE',  ( 1.396592535537252750E-15, -4.898587196589410610E-17, 0.3999999999999998002 ) ) ;
#227 = EDGE_CURVE ( 'NONE', #24, #24, #128, .T. ) ;
#228 = DIRECTION ( 'NONE',  ( 0.0000000000000000000, 1.000000000000000000, 0.0000000000000000000 ) ) ;
#229 = CARTESIAN_POINT ( 'NONE',  ( 4.189777606611760026E-14, 1.687229755494599114E-32, 12.00000000000000000 ) ) ;
#230 = AXIS2_PLACEMENT_3D ( 'NONE', #208, #153, #173 ) ;
#231 = VERTEX_POINT ( 'NONE', #142 ) ;
#232 = PRODUCT_RELATED_PRODUCT_CATEGORY ( 'detail', '', ( #79 ) ) ;
#233 = DIRECTION ( 'NONE',  ( -3.491481338843133355E-15, 1.224646799147353207E-16, -1.000000000000000000 ) ) ;
#234 = DATE_AND_TIME ( #22, #121 ) ;
#235 = EDGE_CURVE ( 'NONE', #60, #60, #77, .T. ) ;
#236 = APPROVAL_DATE_TIME ( #9, #217 ) ;
#237 = CC_DESIGN_DATE_AND_TIME_ASSIGNMENT ( #234, #10, ( #56 ) ) ;
#238 = ORIENTED_EDGE ( 'NONE', *, *, #18, .T. ) ;
#239 = APPROVAL_STATUS ( 'not_yet_approved' ) ;
#240 = CONICAL_SURFACE ( 'NONE', #149, 1.600000000000000977, 0.7853981633974512766 ) ;
#241 = EDGE_LOOP ( 'NONE', ( #31 ) ) ;
#242 = ADVANCED_FACE ( 'NONE', ( #210, #39 ), #240, .T. ) ;
#243 = PERSON_AND_ORGANIZATION ( #64, #87 ) ;
ENDSEC;
END-ISO-10303-21;
