ISO-10303-21;
HEADER;
FILE_DESCRIPTION (( 'STEP AP203' ),
    '1' );
FILE_NAME ('321675.step',
    '2021-12-02T12:56:21',
    ( '' ),
    ( '' ),
    'SwSTEP 2.0',
    'SolidWorks 2019',
    '' );
FILE_SCHEMA (( 'CONFIG_CONTROL_DESIGN' ));
ENDSEC;

DATA;
#1 = PRODUCT ( '321675', '321675', '', ( #9 ) ) ;
#2 = DIRECTION ( 'NONE',  ( 0.0000000000000000000, 1.000000000000000000, 0.0000000000000000000 ) ) ;
#3 = DIRECTION ( 'NONE',  ( 0.0000000000000000000, 1.000000000000000000, 0.0000000000000000000 ) ) ;
#4 = EDGE_LOOP ( 'NONE', ( #90 ) ) ;
#5 = FACE_BOUND ( 'NONE', #57, .T. ) ;
#6 = PLANE ( 'NONE',  #21 ) ;
#7 = AXIS2_PLACEMENT_3D ( 'NONE', #136, #134, #2 ) ;
#8 = DIRECTION ( 'NONE',  ( 3.491481338843133355E-15, -1.224646799147353207E-16, 1.000000000000000000 ) ) ;
#9 = MECHANICAL_CONTEXT ( 'NONE', #82, 'mechanical' ) ;
#10 =( LENGTH_UNIT ( ) NAMED_UNIT ( * ) SI_UNIT ( .MILLI., .METRE. ) );
#11 = AXIS2_PLACEMENT_3D ( 'NONE', #169, #171, #46 ) ;
#12 = DIRECTION ( 'NONE',  ( 0.0000000000000000000, 0.0000000000000000000, 1.000000000000000000 ) ) ;
#13 = EDGE_LOOP ( 'NONE', ( #145 ) ) ;
#14 = CARTESIAN_POINT ( 'NONE',  ( 0.0000000000000000000, 0.0000000000000000000, 0.0000000000000000000 ) ) ;
#15 = CYLINDRICAL_SURFACE ( 'NONE', #107, 1.999999999999996669 ) ;
#16 = EDGE_LOOP ( 'NONE', ( #24 ) ) ;
#17 = CALENDAR_DATE ( 2021, 2, 12 ) ;
#18 = PERSON_AND_ORGANIZATION ( #201, #241 ) ;
#19 = DIRECTION ( 'NONE',  ( 0.0000000000000000000, 1.000000000000000000, 0.0000000000000000000 ) ) ;
#20 = CARTESIAN_POINT ( 'NONE',  ( 4.189777606611760026E-14, -1.469576158976823947E-15, 12.00000000000000000 ) ) ;
#21 = AXIS2_PLACEMENT_3D ( 'NONE', #94, #227, #120 ) ;
#22 = ADVANCED_BREP_SHAPE_REPRESENTATION ( '321675', ( #33, #40, #223 ), #166 ) ;
#23 = CARTESIAN_POINT ( 'NONE',  ( 4.337939471889369098E-14, -1.521544345674349142E-15, 12.42435244785441384 ) ) ;
#24 = ORIENTED_EDGE ( 'NONE', *, *, #204, .F. ) ;
#25 = DIRECTION ( 'NONE',  ( -3.491481338843133355E-15, 1.224646799147353207E-16, -1.000000000000000000 ) ) ;
#26 = DIRECTION ( 'NONE',  ( 0.0000000000000000000, 1.000000000000000000, 0.0000000000000000000 ) ) ;
#27 = APPLICATION_PROTOCOL_DEFINITION ( 'international standard', 'config_control_design', 1994, #187 ) ;
#28 = COORDINATED_UNIVERSAL_TIME_OFFSET ( 1, 0, .AHEAD. ) ;
#29 = DIRECTION ( 'NONE',  ( 4.275831445896958607E-31, 1.000000000000000000, 1.224646799147353207E-16 ) ) ;
#30 = LOCAL_TIME ( 13, 56, 21.00000000000000000, #143 ) ;
#31 = PERSON_AND_ORGANIZATION_ROLE ( 'design_owner' ) ;
#32 = ORIENTED_EDGE ( 'NONE', *, *, #131, .F. ) ;
#33 = MANIFOLD_SOLID_BREP ( 'Corps-Déplacer/Copier1[1]', #67 ) ;
#34 = SECURITY_CLASSIFICATION ( '', '', #168 ) ;
#35 = PERSON_AND_ORGANIZATION ( #201, #241 ) ;
#36 = SHAPE_DEFINITION_REPRESENTATION ( #37, #22 ) ;
#37 = PRODUCT_DEFINITION_SHAPE ( 'NONE', 'NONE',  #226 ) ;
#38 = CC_DESIGN_PERSON_AND_ORGANIZATION_ASSIGNMENT ( #236, #31, ( #1 ) ) ;
#39 = AXIS2_PLACEMENT_3D ( 'NONE', #118, #25, #98 ) ;
#40 = MANIFOLD_SOLID_BREP ( 'Corps-Déplacer/Copier1[2]', #78 ) ;
#41 = DIRECTION ( 'NONE',  ( -3.491481338843133355E-15, 1.224646799147353207E-16, -1.000000000000000000 ) ) ;
#42 = EDGE_CURVE ( 'NONE', #106, #106, #218, .T. ) ;
#43 = PLANE ( 'NONE',  #170 ) ;
#44 = DIRECTION ( 'NONE',  ( -3.491481338843133355E-15, 1.224646799147353207E-16, -1.000000000000000000 ) ) ;
#45 = DIRECTION ( 'NONE',  ( 3.491481338843133355E-15, -1.224646799147353207E-16, 1.000000000000000000 ) ) ;
#46 = DIRECTION ( 'NONE',  ( 4.275831445896959482E-31, 1.000000000000000000, 1.224646799147353207E-16 ) ) ;
#47 = CIRCLE ( 'NONE', #100, 1.845000000000013962 ) ;
#48 = CARTESIAN_POINT ( 'NONE',  ( 0.0000000000000000000, 0.0000000000000000000, 0.0000000000000000000 ) ) ;
#49 = EDGE_CURVE ( 'NONE', #220, #220, #54, .T. ) ;
#50 = APPROVAL_STATUS ( 'not_yet_approved' ) ;
#51 = VERTEX_POINT ( 'NONE', #138 ) ;
#52 = CARTESIAN_POINT ( 'NONE',  ( 4.189777606611760026E-14, 2.245000000000013873, 12.00000000000000000 ) ) ;
#53 = APPROVAL_DATE_TIME ( #89, #213 ) ;
#54 = CIRCLE ( 'NONE', #175, 2.245000000000015206 ) ;
#55 = EDGE_LOOP ( 'NONE', ( #165 ) ) ;
#56 = ORIENTED_EDGE ( 'NONE', *, *, #42, .F. ) ;
#57 = EDGE_LOOP ( 'NONE', ( #148 ) ) ;
#58 = CC_DESIGN_DATE_AND_TIME_ASSIGNMENT ( #199, #234, ( #226 ) ) ;
#59 = DIRECTION ( 'NONE',  ( -3.491481338843133355E-15, 1.224646799147353207E-16, -1.000000000000000000 ) ) ;
#60 = CARTESIAN_POINT ( 'NONE',  ( -3.944454508839974438E-31, 1.383528399505574290E-32, -1.129736672213441987E-16 ) ) ;
#61 = APPROVAL_PERSON_ORGANIZATION ( #18, #237, #202 ) ;
#62 = DIRECTION ( 'NONE',  ( -3.491481338843133355E-15, 1.224646799147353207E-16, -1.000000000000000000 ) ) ;
#63 = CARTESIAN_POINT ( 'NONE',  ( -7.888909017679948876E-31, 2.767056799011148580E-32, -2.259473344426883974E-16 ) ) ;
#64 = CARTESIAN_POINT ( 'NONE',  ( 2.779219145719134403E-13, 1.999999999999991340, 79.60000000000000853 ) ) ;
#65 = LOCAL_TIME ( 13, 56, 21.00000000000000000, #28 ) ;
#66 = VERTEX_POINT ( 'NONE', #64 ) ;
#67 = CLOSED_SHELL ( 'NONE', ( #72, #74, #243, #164, #86 ) ) ;
#68 = LOCAL_TIME ( 13, 56, 21.00000000000000000, #69 ) ;
#69 = COORDINATED_UNIVERSAL_TIME_OFFSET ( 1, 0, .AHEAD. ) ;
#70 = EDGE_LOOP ( 'NONE', ( #119 ) ) ;
#71 = COORDINATED_UNIVERSAL_TIME_OFFSET ( 1, 0, .AHEAD. ) ;
#72 = ADVANCED_FACE ( 'NONE', ( #211 ), #205, .F. ) ;
#73 = LOCAL_TIME ( 13, 56, 21.00000000000000000, #71 ) ;
#74 = ADVANCED_FACE ( 'NONE', ( #97, #75 ), #104, .T. ) ;
#75 = FACE_OUTER_BOUND ( 'NONE', #95, .T. ) ;
#76 = FACE_BOUND ( 'NONE', #4, .T. ) ;
#77 = DIRECTION ( 'NONE',  ( 3.491481338843133355E-15, -1.224646799147353207E-16, 1.000000000000000000 ) ) ;
#78 = CLOSED_SHELL ( 'NONE', ( #113, #181, #157, #198 ) ) ;
#79 = AXIS2_PLACEMENT_3D ( 'NONE', #60, #176, #135 ) ;
#80 = CARTESIAN_POINT ( 'NONE',  ( 4.189777606611760026E-14, -1.469576158976823947E-15, 12.00000000000000000 ) ) ;
#81 = FACE_OUTER_BOUND ( 'NONE', #16, .T. ) ;
#82 = APPLICATION_CONTEXT ( 'configuration controlled 3d designs of mechanical parts and assemblies' ) ;
#83 = FACE_OUTER_BOUND ( 'NONE', #70, .T. ) ;
#84 = DIRECTION ( 'NONE',  ( -3.491481338843133355E-15, 1.224646799147353207E-16, -1.000000000000000000 ) ) ;
#85 = APPROVAL_STATUS ( 'not_yet_approved' ) ;
#86 = ADVANCED_FACE ( 'NONE', ( #149 ), #6, .F. ) ;
#87 = CC_DESIGN_PERSON_AND_ORGANIZATION_ASSIGNMENT ( #178, #177, ( #226 ) ) ;
#88 = DATE_TIME_ROLE ( 'classification_date' ) ;
#89 = DATE_AND_TIME ( #91, #30 ) ;
#90 = ORIENTED_EDGE ( 'NONE', *, *, #212, .T. ) ;
#91 = CALENDAR_DATE ( 2021, 2, 12 ) ;
#92 = DIRECTION ( 'NONE',  ( -4.275831445896958607E-31, -1.000000000000000000, -1.224646799147353207E-16 ) ) ;
#93 = AXIS2_PLACEMENT_3D ( 'NONE', #63, #77, #92 ) ;
#94 = CARTESIAN_POINT ( 'NONE',  ( 2.793185071074506684E-13, 1.199807826129472128E-32, 80.00000000000000000 ) ) ;
#95 = EDGE_LOOP ( 'NONE', ( #32 ) ) ;
#96 = EDGE_LOOP ( 'NONE', ( #140 ) ) ;
#97 = FACE_BOUND ( 'NONE', #96, .T. ) ;
#98 = DIRECTION ( 'NONE',  ( 0.0000000000000000000, 1.000000000000000000, 0.0000000000000000000 ) ) ;
#99 = EDGE_CURVE ( 'NONE', #221, #221, #111, .T. ) ;
#100 = AXIS2_PLACEMENT_3D ( 'NONE', #174, #84, #29 ) ;
#101 = PLANE ( 'NONE',  #79 ) ;
#102 = APPROVAL_DATE_TIME ( #121, #114 ) ;
#103 = CARTESIAN_POINT ( 'NONE',  ( 2.793185071074506684E-13, 1.599999999999991207, 80.00000000000000000 ) ) ;
#104 = CONICAL_SURFACE ( 'NONE', #219, 2.245000000000015206, 0.5235987755982992597 ) ;
#105 = DIRECTION ( 'NONE',  ( 4.275831445896958607E-31, 1.000000000000000000, 1.224646799147353207E-16 ) ) ;
#106 = VERTEX_POINT ( 'NONE', #215 ) ;
#107 = AXIS2_PLACEMENT_3D ( 'NONE', #14, #158, #105 ) ;
#108 = UNCERTAINTY_MEASURE_WITH_UNIT (LENGTH_MEASURE( 1.000000000000000082E-05 ), #10, 'distance_accuracy_value', 'NONE');
#109 = CALENDAR_DATE ( 2021, 2, 12 ) ;
#110 = APPROVAL_DATE_TIME ( #188, #237 ) ;
#111 = CIRCLE ( 'NONE', #123, 2.245000000000015206 ) ;
#112 = EDGE_LOOP ( 'NONE', ( #182 ) ) ;
#113 = ADVANCED_FACE ( 'NONE', ( #173, #150 ), #191, .T. ) ;
#114 = APPROVAL ( #85, 'UNSPECIFIED' ) ;
#115 = EDGE_LOOP ( 'NONE', ( #56 ) ) ;
#116 = CONICAL_SURFACE ( 'NONE', #197, 1.600000000000000977, 0.7853981633974512766 ) ;
#117 = CARTESIAN_POINT ( 'NONE',  ( 4.189777606611760026E-14, 1.683480356037944717E-32, 12.00000000000000000 ) ) ;
#118 = CARTESIAN_POINT ( 'NONE',  ( 2.793185071074506684E-13, -9.797174393178826052E-15, 80.00000000000000000 ) ) ;
#119 = ORIENTED_EDGE ( 'NONE', *, *, #204, .T. ) ;
#120 = DIRECTION ( 'NONE',  ( 4.275831445896958607E-31, 1.000000000000000000, 1.224646799147353207E-16 ) ) ;
#121 = DATE_AND_TIME ( #142, #68 ) ;
#122 = VERTEX_POINT ( 'NONE', #103 ) ;
#123 = AXIS2_PLACEMENT_3D ( 'NONE', #225, #41, #194 ) ;
#124 = CC_DESIGN_DATE_AND_TIME_ASSIGNMENT ( #144, #88, ( #34 ) ) ;
#125 = PERSON_AND_ORGANIZATION_ROLE ( 'design_supplier' ) ;
#126 = PERSON_AND_ORGANIZATION_ROLE ( 'creator' ) ;
#127 = LOCAL_TIME ( 13, 56, 21.00000000000000000, #129 ) ;
#128 = PERSON_AND_ORGANIZATION ( #201, #241 ) ;
#129 = COORDINATED_UNIVERSAL_TIME_OFFSET ( 1, 0, .AHEAD. ) ;
#130 = APPROVAL_PERSON_ORGANIZATION ( #184, #114, #160 ) ;
#131 = EDGE_CURVE ( 'NONE', #235, #235, #189, .T. ) ;
#132 = DIRECTION ( 'NONE',  ( 0.0000000000000000000, 1.000000000000000000, 0.0000000000000000000 ) ) ;
#133 = APPROVAL_PERSON_ORGANIZATION ( #139, #213, #146 ) ;
#134 = DIRECTION ( 'NONE',  ( -3.491481338843133355E-15, 1.224646799147353207E-16, -1.000000000000000000 ) ) ;
#135 = DIRECTION ( 'NONE',  ( 4.275831445896958607E-31, 1.000000000000000000, 1.224646799147353207E-16 ) ) ;
#136 = CARTESIAN_POINT ( 'NONE',  ( 2.779219145719134403E-13, -9.748188521212932624E-15, 79.60000000000000853 ) ) ;
#137 = CC_DESIGN_APPROVAL ( #114, ( #226 ) ) ;
#138 = CARTESIAN_POINT ( 'NONE',  ( 0.0000000000000000000, 1.845000000000013962, 0.0000000000000000000 ) ) ;
#139 = PERSON_AND_ORGANIZATION ( #201, #241 ) ;
#140 = ORIENTED_EDGE ( 'NONE', *, *, #42, .T. ) ;
#141 =( NAMED_UNIT ( * ) SI_UNIT ( $, .STERADIAN. ) SOLID_ANGLE_UNIT ( ) );
#142 = CALENDAR_DATE ( 2021, 2, 12 ) ;
#143 = COORDINATED_UNIVERSAL_TIME_OFFSET ( 1, 0, .AHEAD. ) ;
#144 = DATE_AND_TIME ( #17, #73 ) ;
#145 = ORIENTED_EDGE ( 'NONE', *, *, #99, .T. ) ;
#146 = APPROVAL_ROLE ( '' ) ;
#147 = CC_DESIGN_PERSON_AND_ORGANIZATION_ASSIGNMENT ( #128, #126, ( #203 ) ) ;
#148 = ORIENTED_EDGE ( 'NONE', *, *, #230, .F. ) ;
#149 = FACE_OUTER_BOUND ( 'NONE', #183, .T. ) ;
#150 = FACE_OUTER_BOUND ( 'NONE', #172, .T. ) ;
#151 = ORIENTED_EDGE ( 'NONE', *, *, #230, .T. ) ;
#152 = DIRECTION ( 'NONE',  ( -3.491481338843133355E-15, 1.224646799147353207E-16, -1.000000000000000000 ) ) ;
#153 = FACE_OUTER_BOUND ( 'NONE', #13, .T. ) ;
#154 = FACE_OUTER_BOUND ( 'NONE', #115, .T. ) ;
#155 = CIRCLE ( 'NONE', #39, 1.600000000000000977 ) ;
#156 = CALENDAR_DATE ( 2021, 2, 12 ) ;
#157 = ADVANCED_FACE ( 'NONE', ( #232 ), #101, .T. ) ;
#158 = DIRECTION ( 'NONE',  ( -3.491481338843133355E-15, 1.224646799147353207E-16, -1.000000000000000000 ) ) ;
#159 = DIRECTION ( 'NONE',  ( 1.000000000000000000, 0.0000000000000000000, 0.0000000000000000000 ) ) ;
#160 = APPROVAL_ROLE ( '' ) ;
#161 = AXIS2_PLACEMENT_3D ( 'NONE', #23, #152, #19 ) ;
#162 = ORIENTED_EDGE ( 'NONE', *, *, #99, .F. ) ;
#163 = DESIGN_CONTEXT ( 'detailed design', #187, 'design' ) ;
#164 = ADVANCED_FACE ( 'NONE', ( #81, #76 ), #116, .T. ) ;
#165 = ORIENTED_EDGE ( 'NONE', *, *, #49, .F. ) ;
#166 =( GEOMETRIC_REPRESENTATION_CONTEXT ( 3 ) GLOBAL_UNCERTAINTY_ASSIGNED_CONTEXT ( ( #108 ) ) GLOBAL_UNIT_ASSIGNED_CONTEXT ( ( #10, #180, #141 ) ) REPRESENTATION_CONTEXT ( 'NONE', 'WORKASPACE' ) );
#167 = CC_DESIGN_PERSON_AND_ORGANIZATION_ASSIGNMENT ( #35, #200, ( #34 ) ) ;
#168 = SECURITY_CLASSIFICATION_LEVEL ( 'unclassified' ) ;
#169 = CARTESIAN_POINT ( 'NONE',  ( 0.0000000000000000000, 0.0000000000000000000, 0.0000000000000000000 ) ) ;
#170 = AXIS2_PLACEMENT_3D ( 'NONE', #117, #8, #193 ) ;
#171 = DIRECTION ( 'NONE',  ( -3.491481338843133355E-15, 1.224646799147353207E-16, -1.000000000000000000 ) ) ;
#172 = EDGE_LOOP ( 'NONE', ( #162 ) ) ;
#173 = FACE_OUTER_BOUND ( 'NONE', #112, .T. ) ;
#174 = CARTESIAN_POINT ( 'NONE',  ( -7.888909017679948876E-31, 2.767056799011148580E-32, -2.259473344426883974E-16 ) ) ;
#175 = AXIS2_PLACEMENT_3D ( 'NONE', #210, #224, #26 ) ;
#176 = DIRECTION ( 'NONE',  ( -3.491481338843133355E-15, 1.224646799147353207E-16, -1.000000000000000000 ) ) ;
#177 = PERSON_AND_ORGANIZATION_ROLE ( 'creator' ) ;
#178 = PERSON_AND_ORGANIZATION ( #201, #241 ) ;
#179 = AXIS2_PLACEMENT_3D ( 'NONE', #20, #62, #196 ) ;
#180 =( NAMED_UNIT ( * ) PLANE_ANGLE_UNIT ( ) SI_UNIT ( $, .RADIAN. ) );
#181 = ADVANCED_FACE ( 'NONE', ( #206 ), #43, .T. ) ;
#182 = ORIENTED_EDGE ( 'NONE', *, *, #49, .T. ) ;
#183 = EDGE_LOOP ( 'NONE', ( #242 ) ) ;
#184 = PERSON_AND_ORGANIZATION ( #201, #241 ) ;
#185 = EDGE_LOOP ( 'NONE', ( #217 ) ) ;
#186 = AXIS2_PLACEMENT_3D ( 'NONE', #231, #45, #208 ) ;
#187 = APPLICATION_CONTEXT ( 'configuration controlled 3d designs of mechanical parts and assemblies' ) ;
#188 = DATE_AND_TIME ( #109, #127 ) ;
#189 = CIRCLE ( 'NONE', #179, 2.245000000000015206 ) ;
#190 = CARTESIAN_POINT ( 'NONE',  ( 2.793185071074506684E-13, -9.797174393178826052E-15, 80.00000000000000000 ) ) ;
#191 = CYLINDRICAL_SURFACE ( 'NONE', #11, 2.245000000000015206 ) ;
#192 = CC_DESIGN_APPROVAL ( #237, ( #34 ) ) ;
#193 = DIRECTION ( 'NONE',  ( -4.275831445896958607E-31, -1.000000000000000000, -1.224646799147353207E-16 ) ) ;
#194 = DIRECTION ( 'NONE',  ( 4.289376268122990379E-31, 1.000000000000000000, 1.207352085173159263E-16 ) ) ;
#195 = PRODUCT_RELATED_PRODUCT_CATEGORY ( 'detail', '', ( #1 ) ) ;
#196 = DIRECTION ( 'NONE',  ( 0.0000000000000000000, 1.000000000000000000, 0.0000000000000000000 ) ) ;
#197 = AXIS2_PLACEMENT_3D ( 'NONE', #190, #59, #132 ) ;
#198 = ADVANCED_FACE ( 'NONE', ( #153, #5 ), #207, .T. ) ;
#199 = DATE_AND_TIME ( #156, #65 ) ;
#200 = PERSON_AND_ORGANIZATION_ROLE ( 'classification_officer' ) ;
#201 = PERSON ( 'UNSPECIFIED', 'UNSPECIFIED', 'UNSPECIFIED', ('UNSPECIFIED'), ('UNSPECIFIED'), ('UNSPECIFIED') ) ;
#202 = APPROVAL_ROLE ( '' ) ;
#203 = PRODUCT_DEFINITION_FORMATION_WITH_SPECIFIED_SOURCE ( 'ANY', '', #1, .NOT_KNOWN. ) ;
#204 = EDGE_CURVE ( 'NONE', #66, #66, #228, .T. ) ;
#205 = PLANE ( 'NONE',  #186 ) ;
#206 = FACE_OUTER_BOUND ( 'NONE', #55, .T. ) ;
#207 = CONICAL_SURFACE ( 'NONE', #93, 1.845000000000013962, 0.7853981633974497223 ) ;
#208 = DIRECTION ( 'NONE',  ( -4.275831445896958607E-31, -1.000000000000000000, -1.224646799147353207E-16 ) ) ;
#209 = CC_DESIGN_PERSON_AND_ORGANIZATION_ASSIGNMENT ( #240, #125, ( #203 ) ) ;
#210 = CARTESIAN_POINT ( 'NONE',  ( 4.189777606611760026E-14, -1.469576158976823947E-15, 12.00000000000000000 ) ) ;
#211 = FACE_OUTER_BOUND ( 'NONE', #185, .T. ) ;
#212 = EDGE_CURVE ( 'NONE', #122, #122, #155, .T. ) ;
#213 = APPROVAL ( #50, 'UNSPECIFIED' ) ;
#214 = EDGE_LOOP ( 'NONE', ( #151 ) ) ;
#215 = CARTESIAN_POINT ( 'NONE',  ( 4.337939471889369098E-14, 1.999999999999990452, 12.42435244785441384 ) ) ;
#216 = APPLICATION_PROTOCOL_DEFINITION ( 'international standard', 'config_control_design', 1994, #82 ) ;
#217 = ORIENTED_EDGE ( 'NONE', *, *, #131, .T. ) ;
#218 = CIRCLE ( 'NONE', #161, 1.999999999999992228 ) ;
#219 = AXIS2_PLACEMENT_3D ( 'NONE', #80, #44, #3 ) ;
#220 = VERTEX_POINT ( 'NONE', #52 ) ;
#221 = VERTEX_POINT ( 'NONE', #239 ) ;
#222 = APPROVAL_STATUS ( 'not_yet_approved' ) ;
#223 = AXIS2_PLACEMENT_3D ( 'NONE', #48, #12, #159 ) ;
#224 = DIRECTION ( 'NONE',  ( -3.491481338843133355E-15, 1.224646799147353207E-16, -1.000000000000000000 ) ) ;
#225 = CARTESIAN_POINT ( 'NONE',  ( 1.396592535537253145E-15, -4.898587196589411843E-17, 0.3999999999999999112 ) ) ;
#226 = PRODUCT_DEFINITION ( 'UNKNOWN', '', #203, #163 ) ;
#227 = DIRECTION ( 'NONE',  ( -3.491481338843133355E-15, 1.224646799147353207E-16, -1.000000000000000000 ) ) ;
#228 = CIRCLE ( 'NONE', #7, 2.000000000000000888 ) ;
#229 = CC_DESIGN_APPROVAL ( #213, ( #203 ) ) ;
#230 = EDGE_CURVE ( 'NONE', #51, #51, #47, .T. ) ;
#231 = CARTESIAN_POINT ( 'NONE',  ( 4.189777606611760026E-14, 1.683480356037944717E-32, 12.00000000000000000 ) ) ;
#232 = FACE_OUTER_BOUND ( 'NONE', #214, .T. ) ;
#233 = CARTESIAN_POINT ( 'NONE',  ( 4.189777606611760026E-14, 2.245000000000013873, 12.00000000000000000 ) ) ;
#234 = DATE_TIME_ROLE ( 'creation_date' ) ;
#235 = VERTEX_POINT ( 'NONE', #233 ) ;
#236 = PERSON_AND_ORGANIZATION ( #201, #241 ) ;
#237 = APPROVAL ( #222, 'UNSPECIFIED' ) ;
#238 = CC_DESIGN_SECURITY_CLASSIFICATION ( #34, ( #203 ) ) ;
#239 = CARTESIAN_POINT ( 'NONE',  ( 1.396592535537254131E-15, 2.245000000000015206, 0.4000000000000001887 ) ) ;
#240 = PERSON_AND_ORGANIZATION ( #201, #241 ) ;
#241 = ORGANIZATION ( 'UNSPECIFIED', 'UNSPECIFIED', '' ) ;
#242 = ORIENTED_EDGE ( 'NONE', *, *, #212, .F. ) ;
#243 = ADVANCED_FACE ( 'NONE', ( #154, #83 ), #15, .T. ) ;
ENDSEC;
END-ISO-10303-21;
