ISO-10303-21;
HEADER;
FILE_DESCRIPTION (( 'STEP AP203' ),
    '1' );
FILE_NAME ('321674.step',
    '2021-12-02T12:56:21',
    ( '' ),
    ( '' ),
    'SwSTEP 2.0',
    'SolidWorks 2019',
    '' );
FILE_SCHEMA (( 'CONFIG_CONTROL_DESIGN' ));
ENDSEC;

DATA;
#1 = PERSON_AND_ORGANIZATION ( #51, #153 ) ;
#2 = CARTESIAN_POINT ( 'NONE',  ( 4.334915760353091594E-14, -1.520483770435624098E-15, 12.41569219381656985 ) ) ;
#3 = PRODUCT ( '321674', '321674', '', ( #168 ) ) ;
#4 = COORDINATED_UNIVERSAL_TIME_OFFSET ( 1, 0, .AHEAD. ) ;
#5 = ORIENTED_EDGE ( 'NONE', *, *, #175, .F. ) ;
#6 = EDGE_LOOP ( 'NONE', ( #41 ) ) ;
#7 = CYLINDRICAL_SURFACE ( 'NONE', #126, 1.999999999999996669 ) ;
#8 = AXIS2_PLACEMENT_3D ( 'NONE', #83, #181, #139 ) ;
#9 = DIRECTION ( 'NONE',  ( -3.491481338843133355E-15, 1.224646799147353207E-16, -1.000000000000000000 ) ) ;
#10 = DIRECTION ( 'NONE',  ( -4.275831445896958607E-31, -1.000000000000000000, -1.224646799147353207E-16 ) ) ;
#11 = DIRECTION ( 'NONE',  ( 0.0000000000000000000, 1.000000000000000000, 0.0000000000000000000 ) ) ;
#12 = AXIS2_PLACEMENT_3D ( 'NONE', #216, #131, #45 ) ;
#13 = CARTESIAN_POINT ( 'NONE',  ( 1.396592535537252750E-15, -4.898587196589410610E-17, 0.3999999999999998002 ) ) ;
#14 = VERTEX_POINT ( 'NONE', #166 ) ;
#15 = AXIS2_PLACEMENT_3D ( 'NONE', #218, #180, #71 ) ;
#16 = PERSON_AND_ORGANIZATION ( #51, #153 ) ;
#17 = CC_DESIGN_APPROVAL ( #237, ( #234 ) ) ;
#18 = DATE_AND_TIME ( #207, #186 ) ;
#19 = PERSON_AND_ORGANIZATION ( #51, #153 ) ;
#20 = PERSON_AND_ORGANIZATION ( #51, #153 ) ;
#21 = AXIS2_PLACEMENT_3D ( 'NONE', #25, #182, #67 ) ;
#22 = EDGE_LOOP ( 'NONE', ( #213 ) ) ;
#23 = ORIENTED_EDGE ( 'NONE', *, *, #63, .T. ) ;
#24 = DIRECTION ( 'NONE',  ( -3.491481338843133355E-15, 1.224646799147353207E-16, -1.000000000000000000 ) ) ;
#25 = CARTESIAN_POINT ( 'NONE',  ( -3.933764930225230767E-31, 1.379779000048919345E-32, -1.126675055215573303E-16 ) ) ;
#26 = FACE_OUTER_BOUND ( 'NONE', #22, .T. ) ;
#27 = CARTESIAN_POINT ( 'NONE',  ( -7.867529860450461535E-31, 2.759558000097838689E-32, -2.253350110431146605E-16 ) ) ;
#28 = DIRECTION ( 'NONE',  ( -4.275831445896958607E-31, -1.000000000000000000, -1.224646799147353207E-16 ) ) ;
#29 = CARTESIAN_POINT ( 'NONE',  ( 2.793185071074506684E-13, 1.599999999999991207, 80.00000000000000000 ) ) ;
#30 = EDGE_CURVE ( 'NONE', #84, #84, #212, .T. ) ;
#31 = CIRCLE ( 'NONE', #12, 2.240000000000014868 ) ;
#32 = LOCAL_TIME ( 13, 56, 21.00000000000000000, #74 ) ;
#33 = EDGE_CURVE ( 'NONE', #140, #140, #157, .T. ) ;
#34 = APPROVAL_ROLE ( '' ) ;
#35 = PERSON_AND_ORGANIZATION_ROLE ( 'design_supplier' ) ;
#36 = CIRCLE ( 'NONE', #105, 2.240000000000014868 ) ;
#37 = DATE_AND_TIME ( #40, #184 ) ;
#38 = EDGE_LOOP ( 'NONE', ( #101 ) ) ;
#39 = ADVANCED_BREP_SHAPE_REPRESENTATION ( '321674', ( #174, #178, #15 ), #225 ) ;
#40 = CALENDAR_DATE ( 2021, 2, 12 ) ;
#41 = ORIENTED_EDGE ( 'NONE', *, *, #155, .F. ) ;
#42 = ORIENTED_EDGE ( 'NONE', *, *, #239, .T. ) ;
#43 = ORIENTED_EDGE ( 'NONE', *, *, #30, .F. ) ;
#44 = CC_DESIGN_PERSON_AND_ORGANIZATION_ASSIGNMENT ( #243, #148, ( #3 ) ) ;
#45 = DIRECTION ( 'NONE',  ( 0.0000000000000000000, 1.000000000000000000, 0.0000000000000000000 ) ) ;
#46 = FACE_OUTER_BOUND ( 'NONE', #156, .T. ) ;
#47 = APPROVAL_PERSON_ORGANIZATION ( #120, #229, #183 ) ;
#48 = ADVANCED_FACE ( 'NONE', ( #118, #192 ), #78, .T. ) ;
#49 = PLANE ( 'NONE',  #111 ) ;
#50 = DIRECTION ( 'NONE',  ( 4.275831445896958607E-31, 1.000000000000000000, 1.224646799147353207E-16 ) ) ;
#51 = PERSON ( 'UNSPECIFIED', 'UNSPECIFIED', 'UNSPECIFIED', ('UNSPECIFIED'), ('UNSPECIFIED'), ('UNSPECIFIED') ) ;
#52 = DESIGN_CONTEXT ( 'detailed design', #134, 'design' ) ;
#53 = DIRECTION ( 'NONE',  ( -3.491481338843133355E-15, 1.224646799147353207E-16, -1.000000000000000000 ) ) ;
#54 = CC_DESIGN_SECURITY_CLASSIFICATION ( #234, ( #227 ) ) ;
#55 = AXIS2_PLACEMENT_3D ( 'NONE', #223, #241, #199 ) ;
#56 = APPLICATION_PROTOCOL_DEFINITION ( 'international standard', 'config_control_design', 1994, #119 ) ;
#57 = CALENDAR_DATE ( 2021, 2, 12 ) ;
#58 = CC_DESIGN_DATE_AND_TIME_ASSIGNMENT ( #205, #209, ( #160 ) ) ;
#59 = CALENDAR_DATE ( 2021, 2, 12 ) ;
#60 = CIRCLE ( 'NONE', #95, 1.600000000000000977 ) ;
#61 = EDGE_LOOP ( 'NONE', ( #232 ) ) ;
#62 = ADVANCED_FACE ( 'NONE', ( #26, #69 ), #64, .T. ) ;
#63 = EDGE_CURVE ( 'NONE', #204, #204, #36, .T. ) ;
#64 = CONICAL_SURFACE ( 'NONE', #8, 1.600000000000000977, 0.7853981633974512766 ) ;
#65 = FACE_BOUND ( 'NONE', #75, .T. ) ;
#66 = CARTESIAN_POINT ( 'NONE',  ( 0.0000000000000000000, 1.840000000000013625, 0.0000000000000000000 ) ) ;
#67 = DIRECTION ( 'NONE',  ( 4.275831445896958607E-31, 1.000000000000000000, 1.224646799147353207E-16 ) ) ;
#68 = AXIS2_PLACEMENT_3D ( 'NONE', #2, #152, #138 ) ;
#69 = FACE_BOUND ( 'NONE', #61, .T. ) ;
#70 = CARTESIAN_POINT ( 'NONE',  ( 0.0000000000000000000, 0.0000000000000000000, 0.0000000000000000000 ) ) ;
#71 = DIRECTION ( 'NONE',  ( 1.000000000000000000, 0.0000000000000000000, 0.0000000000000000000 ) ) ;
#72 = VERTEX_POINT ( 'NONE', #146 ) ;
#73 = ADVANCED_FACE ( 'NONE', ( #200 ), #161, .T. ) ;
#74 = COORDINATED_UNIVERSAL_TIME_OFFSET ( 1, 0, .AHEAD. ) ;
#75 = EDGE_LOOP ( 'NONE', ( #43 ) ) ;
#76 = APPROVAL_ROLE ( '' ) ;
#77 = ORIENTED_EDGE ( 'NONE', *, *, #222, .T. ) ;
#78 = CONICAL_SURFACE ( 'NONE', #141, 2.240000000000014868, 0.5235987755982995928 ) ;
#79 = ORIENTED_EDGE ( 'NONE', *, *, #33, .T. ) ;
#80 = COORDINATED_UNIVERSAL_TIME_OFFSET ( 1, 0, .AHEAD. ) ;
#81 = EDGE_LOOP ( 'NONE', ( #79 ) ) ;
#82 = EDGE_LOOP ( 'NONE', ( #211 ) ) ;
#83 = CARTESIAN_POINT ( 'NONE',  ( 2.793185071074506684E-13, -9.797174393178826052E-15, 80.00000000000000000 ) ) ;
#84 = VERTEX_POINT ( 'NONE', #66 ) ;
#85 = DIRECTION ( 'NONE',  ( -3.491481338843133355E-15, 1.224646799147353207E-16, -1.000000000000000000 ) ) ;
#86 = CARTESIAN_POINT ( 'NONE',  ( 2.793185071074506684E-13, -9.797174393178826052E-15, 80.00000000000000000 ) ) ;
#87 = LOCAL_TIME ( 13, 56, 21.00000000000000000, #4 ) ;
#88 = DIRECTION ( 'NONE',  ( -3.491481338843133355E-15, 1.224646799147353207E-16, -1.000000000000000000 ) ) ;
#89 = ADVANCED_FACE ( 'NONE', ( #235, #65 ), #147, .T. ) ;
#90 = VERTEX_POINT ( 'NONE', #242 ) ;
#91 = CC_DESIGN_PERSON_AND_ORGANIZATION_ASSIGNMENT ( #16, #35, ( #227 ) ) ;
#92 = LOCAL_TIME ( 13, 56, 21.00000000000000000, #80 ) ;
#93 = ADVANCED_FACE ( 'NONE', ( #46 ), #221, .F. ) ;
#94 = PERSON_AND_ORGANIZATION_ROLE ( 'classification_officer' ) ;
#95 = AXIS2_PLACEMENT_3D ( 'NONE', #86, #108, #238 ) ;
#96 = SECURITY_CLASSIFICATION_LEVEL ( 'unclassified' ) ;
#97 = SHAPE_DEFINITION_REPRESENTATION ( #210, #39 ) ;
#98 =( NAMED_UNIT ( * ) SI_UNIT ( $, .STERADIAN. ) SOLID_ANGLE_UNIT ( ) );
#99 = ORIENTED_EDGE ( 'NONE', *, *, #63, .F. ) ;
#100 = DATE_AND_TIME ( #59, #32 ) ;
#101 = ORIENTED_EDGE ( 'NONE', *, *, #175, .T. ) ;
#102 = CC_DESIGN_APPROVAL ( #229, ( #160 ) ) ;
#103 = CARTESIAN_POINT ( 'NONE',  ( -7.867529860450461535E-31, 2.759558000097838689E-32, -2.253350110431146605E-16 ) ) ;
#104 = DIRECTION ( 'NONE',  ( 0.0000000000000000000, 1.000000000000000000, 0.0000000000000000000 ) ) ;
#105 = AXIS2_PLACEMENT_3D ( 'NONE', #201, #159, #11 ) ;
#106 = FACE_OUTER_BOUND ( 'NONE', #196, .T. ) ;
#107 = CARTESIAN_POINT ( 'NONE',  ( 4.189777606611760026E-14, -1.469576158976823947E-15, 12.00000000000000000 ) ) ;
#108 = DIRECTION ( 'NONE',  ( -3.491481338843133355E-15, 1.224646799147353207E-16, -1.000000000000000000 ) ) ;
#109 = AXIS2_PLACEMENT_3D ( 'NONE', #13, #88, #142 ) ;
#110 = DIRECTION ( 'NONE',  ( -3.491481338843133355E-15, 1.224646799147353207E-16, -1.000000000000000000 ) ) ;
#111 = AXIS2_PLACEMENT_3D ( 'NONE', #125, #110, #129 ) ;
#112 = APPROVAL_PERSON_ORGANIZATION ( #187, #208, #76 ) ;
#113 = COORDINATED_UNIVERSAL_TIME_OFFSET ( 1, 0, .AHEAD. ) ;
#114 = CC_DESIGN_PERSON_AND_ORGANIZATION_ASSIGNMENT ( #20, #121, ( #160 ) ) ;
#115 = AXIS2_PLACEMENT_3D ( 'NONE', #103, #176, #190 ) ;
#116 = PERSON_AND_ORGANIZATION_ROLE ( 'creator' ) ;
#117 = EDGE_LOOP ( 'NONE', ( #99 ) ) ;
#118 = FACE_BOUND ( 'NONE', #81, .T. ) ;
#119 = APPLICATION_CONTEXT ( 'configuration controlled 3d designs of mechanical parts and assemblies' ) ;
#120 = PERSON_AND_ORGANIZATION ( #51, #153 ) ;
#121 = PERSON_AND_ORGANIZATION_ROLE ( 'creator' ) ;
#122 = ORIENTED_EDGE ( 'NONE', *, *, #33, .F. ) ;
#123 = ORIENTED_EDGE ( 'NONE', *, *, #30, .T. ) ;
#124 = EDGE_LOOP ( 'NONE', ( #42 ) ) ;
#125 = CARTESIAN_POINT ( 'NONE',  ( 2.793185071074506684E-13, 1.199807826129472128E-32, 80.00000000000000000 ) ) ;
#126 = AXIS2_PLACEMENT_3D ( 'NONE', #143, #9, #50 ) ;
#127 = DIRECTION ( 'NONE',  ( 3.491481338843133355E-15, -1.224646799147353207E-16, 1.000000000000000000 ) ) ;
#128 = CC_DESIGN_DATE_AND_TIME_ASSIGNMENT ( #170, #154, ( #234 ) ) ;
#129 = DIRECTION ( 'NONE',  ( 4.275831445896958607E-31, 1.000000000000000000, 1.224646799147353207E-16 ) ) ;
#130 = CYLINDRICAL_SURFACE ( 'NONE', #219, 2.240000000000014868 ) ;
#131 = DIRECTION ( 'NONE',  ( -3.491481338843133355E-15, 1.224646799147353207E-16, -1.000000000000000000 ) ) ;
#132 = AXIS2_PLACEMENT_3D ( 'NONE', #198, #24, #104 ) ;
#133 = CARTESIAN_POINT ( 'NONE',  ( 4.189777606611760026E-14, 2.240000000000013536, 12.00000000000000000 ) ) ;
#134 = APPLICATION_CONTEXT ( 'configuration controlled 3d designs of mechanical parts and assemblies' ) ;
#135 = ADVANCED_FACE ( 'NONE', ( #162, #236 ), #7, .T. ) ;
#136 = APPROVAL_DATE_TIME ( #100, #237 ) ;
#137 = CLOSED_SHELL ( 'NONE', ( #195, #73, #167, #89 ) ) ;
#138 = DIRECTION ( 'NONE',  ( 0.0000000000000000000, 1.000000000000000000, 0.0000000000000000000 ) ) ;
#139 = DIRECTION ( 'NONE',  ( 0.0000000000000000000, 1.000000000000000000, 0.0000000000000000000 ) ) ;
#140 = VERTEX_POINT ( 'NONE', #217 ) ;
#141 = AXIS2_PLACEMENT_3D ( 'NONE', #107, #85, #177 ) ;
#142 = DIRECTION ( 'NONE',  ( 4.298950768721480074E-31, 1.000000000000000000, 1.210047067506135312E-16 ) ) ;
#143 = CARTESIAN_POINT ( 'NONE',  ( 0.0000000000000000000, 0.0000000000000000000, 0.0000000000000000000 ) ) ;
#144 = UNCERTAINTY_MEASURE_WITH_UNIT (LENGTH_MEASURE( 1.000000000000000082E-05 ), #194, 'distance_accuracy_value', 'NONE');
#145 = CARTESIAN_POINT ( 'NONE',  ( 4.189777606611760026E-14, 1.679730956581289772E-32, 12.00000000000000000 ) ) ;
#146 = CARTESIAN_POINT ( 'NONE',  ( 2.779219145719134403E-13, 1.999999999999991340, 79.60000000000000853 ) ) ;
#147 = CONICAL_SURFACE ( 'NONE', #188, 1.840000000000013625, 0.7853981633974498333 ) ;
#148 = PERSON_AND_ORGANIZATION_ROLE ( 'design_owner' ) ;
#149 =( NAMED_UNIT ( * ) PLANE_ANGLE_UNIT ( ) SI_UNIT ( $, .RADIAN. ) );
#150 = APPROVAL_STATUS ( 'not_yet_approved' ) ;
#151 = APPROVAL_DATE_TIME ( #18, #229 ) ;
#152 = DIRECTION ( 'NONE',  ( -3.491481338843133355E-15, 1.224646799147353207E-16, -1.000000000000000000 ) ) ;
#153 = ORGANIZATION ( 'UNSPECIFIED', 'UNSPECIFIED', '' ) ;
#154 = DATE_TIME_ROLE ( 'classification_date' ) ;
#155 = EDGE_CURVE ( 'NONE', #185, #185, #60, .T. ) ;
#156 = EDGE_LOOP ( 'NONE', ( #23 ) ) ;
#157 = CIRCLE ( 'NONE', #68, 1.999999999999992228 ) ;
#158 = APPROVAL_PERSON_ORGANIZATION ( #19, #237, #34 ) ;
#159 = DIRECTION ( 'NONE',  ( -3.491481338843133355E-15, 1.224646799147353207E-16, -1.000000000000000000 ) ) ;
#160 = PRODUCT_DEFINITION ( 'UNKNOWN', '', #227, #52 ) ;
#161 = PLANE ( 'NONE',  #55 ) ;
#162 = FACE_OUTER_BOUND ( 'NONE', #197, .T. ) ;
#163 = CIRCLE ( 'NONE', #109, 2.240000000000014868 ) ;
#164 = PLANE ( 'NONE',  #21 ) ;
#165 = FACE_OUTER_BOUND ( 'NONE', #231, .T. ) ;
#166 = CARTESIAN_POINT ( 'NONE',  ( 1.396592535537253737E-15, 2.240000000000014868, 0.4000000000000000777 ) ) ;
#167 = ADVANCED_FACE ( 'NONE', ( #106 ), #164, .T. ) ;
#168 = MECHANICAL_CONTEXT ( 'NONE', #119, 'mechanical' ) ;
#169 = CC_DESIGN_PERSON_AND_ORGANIZATION_ASSIGNMENT ( #1, #94, ( #234 ) ) ;
#170 = DATE_AND_TIME ( #57, #92 ) ;
#171 = EDGE_LOOP ( 'NONE', ( #5 ) ) ;
#172 = PERSON_AND_ORGANIZATION ( #51, #153 ) ;
#173 = CALENDAR_DATE ( 2021, 2, 12 ) ;
#174 = MANIFOLD_SOLID_BREP ( 'Corps-Déplacer/Copier1[1]', #206 ) ;
#175 = EDGE_CURVE ( 'NONE', #14, #14, #163, .T. ) ;
#176 = DIRECTION ( 'NONE',  ( -3.491481338843133355E-15, 1.224646799147353207E-16, -1.000000000000000000 ) ) ;
#177 = DIRECTION ( 'NONE',  ( 0.0000000000000000000, 1.000000000000000000, 0.0000000000000000000 ) ) ;
#178 = MANIFOLD_SOLID_BREP ( 'Corps-Déplacer/Copier1[2]', #137 ) ;
#179 = DIRECTION ( 'NONE',  ( 3.491481338843133355E-15, -1.224646799147353207E-16, 1.000000000000000000 ) ) ;
#180 = DIRECTION ( 'NONE',  ( 0.0000000000000000000, 0.0000000000000000000, 1.000000000000000000 ) ) ;
#181 = DIRECTION ( 'NONE',  ( -3.491481338843133355E-15, 1.224646799147353207E-16, -1.000000000000000000 ) ) ;
#182 = DIRECTION ( 'NONE',  ( -3.491481338843133355E-15, 1.224646799147353207E-16, -1.000000000000000000 ) ) ;
#183 = APPROVAL_ROLE ( '' ) ;
#184 = LOCAL_TIME ( 13, 56, 21.00000000000000000, #230 ) ;
#185 = VERTEX_POINT ( 'NONE', #29 ) ;
#186 = LOCAL_TIME ( 13, 56, 21.00000000000000000, #113 ) ;
#187 = PERSON_AND_ORGANIZATION ( #51, #153 ) ;
#188 = AXIS2_PLACEMENT_3D ( 'NONE', #27, #179, #28 ) ;
#189 = APPROVAL_DATE_TIME ( #37, #208 ) ;
#190 = DIRECTION ( 'NONE',  ( 4.275831445896958607E-31, 1.000000000000000000, 1.224646799147353207E-16 ) ) ;
#191 = APPROVAL_STATUS ( 'not_yet_approved' ) ;
#192 = FACE_OUTER_BOUND ( 'NONE', #117, .T. ) ;
#193 = PRODUCT_RELATED_PRODUCT_CATEGORY ( 'detail', '', ( #3 ) ) ;
#194 =( LENGTH_UNIT ( ) NAMED_UNIT ( * ) SI_UNIT ( .MILLI., .METRE. ) );
#195 = ADVANCED_FACE ( 'NONE', ( #165, #240 ), #130, .T. ) ;
#196 = EDGE_LOOP ( 'NONE', ( #123 ) ) ;
#197 = EDGE_LOOP ( 'NONE', ( #122 ) ) ;
#198 = CARTESIAN_POINT ( 'NONE',  ( 2.779219145719134403E-13, -9.748188521212932624E-15, 79.60000000000000853 ) ) ;
#199 = DIRECTION ( 'NONE',  ( -4.275831445896958607E-31, -1.000000000000000000, -1.224646799147353207E-16 ) ) ;
#200 = FACE_OUTER_BOUND ( 'NONE', #82, .T. ) ;
#201 = CARTESIAN_POINT ( 'NONE',  ( 4.189777606611760026E-14, -1.469576158976823947E-15, 12.00000000000000000 ) ) ;
#202 = AXIS2_PLACEMENT_3D ( 'NONE', #145, #127, #10 ) ;
#203 = FACE_OUTER_BOUND ( 'NONE', #6, .T. ) ;
#204 = VERTEX_POINT ( 'NONE', #133 ) ;
#205 = DATE_AND_TIME ( #173, #87 ) ;
#206 = CLOSED_SHELL ( 'NONE', ( #93, #48, #135, #62, #224 ) ) ;
#207 = CALENDAR_DATE ( 2021, 2, 12 ) ;
#208 = APPROVAL ( #191, 'UNSPECIFIED' ) ;
#209 = DATE_TIME_ROLE ( 'creation_date' ) ;
#210 = PRODUCT_DEFINITION_SHAPE ( 'NONE', 'NONE',  #160 ) ;
#211 = ORIENTED_EDGE ( 'NONE', *, *, #222, .F. ) ;
#212 = CIRCLE ( 'NONE', #115, 1.840000000000013625 ) ;
#213 = ORIENTED_EDGE ( 'NONE', *, *, #239, .F. ) ;
#214 = CC_DESIGN_PERSON_AND_ORGANIZATION_ASSIGNMENT ( #172, #116, ( #227 ) ) ;
#215 = APPLICATION_PROTOCOL_DEFINITION ( 'international standard', 'config_control_design', 1994, #134 ) ;
#216 = CARTESIAN_POINT ( 'NONE',  ( 4.189777606611760026E-14, -1.469576158976823947E-15, 12.00000000000000000 ) ) ;
#217 = CARTESIAN_POINT ( 'NONE',  ( 4.334915760353091594E-14, 1.999999999999990452, 12.41569219381656985 ) ) ;
#218 = CARTESIAN_POINT ( 'NONE',  ( 0.0000000000000000000, 0.0000000000000000000, 0.0000000000000000000 ) ) ;
#219 = AXIS2_PLACEMENT_3D ( 'NONE', #70, #53, #220 ) ;
#220 = DIRECTION ( 'NONE',  ( 4.275831445896958607E-31, 1.000000000000000000, 1.224646799147353454E-16 ) ) ;
#221 = PLANE ( 'NONE',  #202 ) ;
#222 = EDGE_CURVE ( 'NONE', #90, #90, #31, .T. ) ;
#223 = CARTESIAN_POINT ( 'NONE',  ( 4.189777606611760026E-14, 1.679730956581289772E-32, 12.00000000000000000 ) ) ;
#224 = ADVANCED_FACE ( 'NONE', ( #203 ), #49, .F. ) ;
#225 =( GEOMETRIC_REPRESENTATION_CONTEXT ( 3 ) GLOBAL_UNCERTAINTY_ASSIGNED_CONTEXT ( ( #144 ) ) GLOBAL_UNIT_ASSIGNED_CONTEXT ( ( #194, #149, #98 ) ) REPRESENTATION_CONTEXT ( 'NONE', 'WORKASPACE' ) );
#226 = CC_DESIGN_APPROVAL ( #208, ( #227 ) ) ;
#227 = PRODUCT_DEFINITION_FORMATION_WITH_SPECIFIED_SOURCE ( 'ANY', '', #3, .NOT_KNOWN. ) ;
#228 = APPROVAL_STATUS ( 'not_yet_approved' ) ;
#229 = APPROVAL ( #150, 'UNSPECIFIED' ) ;
#230 = COORDINATED_UNIVERSAL_TIME_OFFSET ( 1, 0, .AHEAD. ) ;
#231 = EDGE_LOOP ( 'NONE', ( #77 ) ) ;
#232 = ORIENTED_EDGE ( 'NONE', *, *, #155, .T. ) ;
#233 = CIRCLE ( 'NONE', #132, 2.000000000000000888 ) ;
#234 = SECURITY_CLASSIFICATION ( '', '', #96 ) ;
#235 = FACE_OUTER_BOUND ( 'NONE', #38, .T. ) ;
#236 = FACE_OUTER_BOUND ( 'NONE', #124, .T. ) ;
#237 = APPROVAL ( #228, 'UNSPECIFIED' ) ;
#238 = DIRECTION ( 'NONE',  ( 0.0000000000000000000, 1.000000000000000000, 0.0000000000000000000 ) ) ;
#239 = EDGE_CURVE ( 'NONE', #72, #72, #233, .T. ) ;
#240 = FACE_OUTER_BOUND ( 'NONE', #171, .T. ) ;
#241 = DIRECTION ( 'NONE',  ( 3.491481338843133355E-15, -1.224646799147353207E-16, 1.000000000000000000 ) ) ;
#242 = CARTESIAN_POINT ( 'NONE',  ( 4.189777606611760026E-14, 2.240000000000013536, 12.00000000000000000 ) ) ;
#243 = PERSON_AND_ORGANIZATION ( #51, #153 ) ;
ENDSEC;
END-ISO-10303-21;
