ISO-10303-21;
HEADER;
FILE_DESCRIPTION (( 'STEP AP203' ),
    '1' );
FILE_NAME ('321673.step',
    '2021-12-02T12:56:20',
    ( '' ),
    ( '' ),
    'SwSTEP 2.0',
    'SolidWorks 2019',
    '' );
FILE_SCHEMA (( 'CONFIG_CONTROL_DESIGN' ));
ENDSEC;

DATA;
#1 = DIRECTION ( 'NONE',  ( -3.491481338843133355E-15, 1.224646799147353207E-16, -1.000000000000000000 ) ) ;
#2 = SECURITY_CLASSIFICATION ( '', '', #28 ) ;
#3 = FACE_OUTER_BOUND ( 'NONE', #183, .T. ) ;
#4 = DIRECTION ( 'NONE',  ( -3.491481338843133355E-15, 1.224646799147353207E-16, -1.000000000000000000 ) ) ;
#5 = CARTESIAN_POINT ( 'NONE',  ( 4.189777606611760026E-14, -1.469576158976823947E-15, 12.00000000000000000 ) ) ;
#6 = CONICAL_SURFACE ( 'NONE', #36, 1.600000000000000977, 0.7853981633974512766 ) ;
#7 = CARTESIAN_POINT ( 'NONE',  ( 2.779219145719134403E-13, 1.999999999999991340, 79.60000000000000853 ) ) ;
#8 = CC_DESIGN_PERSON_AND_ORGANIZATION_ASSIGNMENT ( #189, #41, ( #33 ) ) ;
#9 = FACE_BOUND ( 'NONE', #31, .T. ) ;
#10 = DATE_TIME_ROLE ( 'creation_date' ) ;
#11 = LOCAL_TIME ( 13, 56, 20.00000000000000000, #200 ) ;
#12 = CALENDAR_DATE ( 2021, 2, 12 ) ;
#13 = EDGE_LOOP ( 'NONE', ( #166 ) ) ;
#14 = ADVANCED_FACE ( 'NONE', ( #3 ), #185, .F. ) ;
#15 = ORIENTED_EDGE ( 'NONE', *, *, #182, .T. ) ;
#16 = ORIENTED_EDGE ( 'NONE', *, *, #136, .T. ) ;
#17 = FACE_OUTER_BOUND ( 'NONE', #236, .T. ) ;
#18 = CARTESIAN_POINT ( 'NONE',  ( 4.189777606611760026E-14, -1.469576158976823947E-15, 12.00000000000000000 ) ) ;
#19 = FACE_OUTER_BOUND ( 'NONE', #103, .T. ) ;
#20 = CARTESIAN_POINT ( 'NONE',  ( 4.331892048816810303E-14, -1.519423195196898068E-15, 12.40703193977871521 ) ) ;
#21 = AXIS2_PLACEMENT_3D ( 'NONE', #169, #1, #233 ) ;
#22 = DIRECTION ( 'NONE',  ( 3.491481338843133355E-15, -1.224646799147353207E-16, 1.000000000000000000 ) ) ;
#23 = VERTEX_POINT ( 'NONE', #227 ) ;
#24 = APPLICATION_PROTOCOL_DEFINITION ( 'international standard', 'config_control_design', 1994, #122 ) ;
#25 = PERSON_AND_ORGANIZATION_ROLE ( 'creator' ) ;
#26 = VERTEX_POINT ( 'NONE', #67 ) ;
#27 = PERSON_AND_ORGANIZATION_ROLE ( 'design_supplier' ) ;
#28 = SECURITY_CLASSIFICATION_LEVEL ( 'unclassified' ) ;
#29 = EDGE_LOOP ( 'NONE', ( #240 ) ) ;
#30 = PERSON_AND_ORGANIZATION ( #176, #198 ) ;
#31 = EDGE_LOOP ( 'NONE', ( #217 ) ) ;
#32 = DIRECTION ( 'NONE',  ( 0.0000000000000000000, 1.000000000000000000, 0.0000000000000000000 ) ) ;
#33 = PRODUCT ( '321673', '321673', '', ( #212 ) ) ;
#34 = CARTESIAN_POINT ( 'NONE',  ( -3.923075351610477900E-31, 1.376029600592260842E-32, -1.123613438217701907E-16 ) ) ;
#35 = MANIFOLD_SOLID_BREP ( 'Corps-Déplacer/Copier1[1]', #197 ) ;
#36 = AXIS2_PLACEMENT_3D ( 'NONE', #93, #56, #32 ) ;
#37 = DIRECTION ( 'NONE',  ( -3.491481338843133355E-15, 1.224646799147353207E-16, -1.000000000000000000 ) ) ;
#38 = EDGE_CURVE ( 'NONE', #192, #192, #58, .T. ) ;
#39 = FACE_OUTER_BOUND ( 'NONE', #123, .T. ) ;
#40 = DIRECTION ( 'NONE',  ( -3.491481338843133355E-15, 1.224646799147353207E-16, -1.000000000000000000 ) ) ;
#41 = PERSON_AND_ORGANIZATION_ROLE ( 'design_owner' ) ;
#42 = DESIGN_CONTEXT ( 'detailed design', #118, 'design' ) ;
#43 =( NAMED_UNIT ( * ) PLANE_ANGLE_UNIT ( ) SI_UNIT ( $, .RADIAN. ) );
#44 = CC_DESIGN_PERSON_AND_ORGANIZATION_ASSIGNMENT ( #90, #234, ( #2 ) ) ;
#45 = DATE_AND_TIME ( #181, #63 ) ;
#46 = ORIENTED_EDGE ( 'NONE', *, *, #94, .T. ) ;
#47 = PRODUCT_DEFINITION_SHAPE ( 'NONE', 'NONE',  #238 ) ;
#48 = EDGE_LOOP ( 'NONE', ( #15 ) ) ;
#49 = CIRCLE ( 'NONE', #129, 2.235000000000010090 ) ;
#50 = EDGE_CURVE ( 'NONE', #65, #65, #193, .T. ) ;
#51 = PERSON_AND_ORGANIZATION ( #176, #198 ) ;
#52 = PERSON_AND_ORGANIZATION ( #176, #198 ) ;
#53 = CLOSED_SHELL ( 'NONE', ( #216, #156, #84, #126 ) ) ;
#54 = LOCAL_TIME ( 13, 56, 20.00000000000000000, #214 ) ;
#55 = FACE_OUTER_BOUND ( 'NONE', #239, .T. ) ;
#56 = DIRECTION ( 'NONE',  ( -3.491481338843133355E-15, 1.224646799147353207E-16, -1.000000000000000000 ) ) ;
#57 = CARTESIAN_POINT ( 'NONE',  ( -7.846150703220955801E-31, 2.752059201184521683E-32, -2.247226876435403813E-16 ) ) ;
#58 = CIRCLE ( 'NONE', #98, 1.600000000000000977 ) ;
#59 =( GEOMETRIC_REPRESENTATION_CONTEXT ( 3 ) GLOBAL_UNCERTAINTY_ASSIGNED_CONTEXT ( ( #190 ) ) GLOBAL_UNIT_ASSIGNED_CONTEXT ( ( #135, #43, #101 ) ) REPRESENTATION_CONTEXT ( 'NONE', 'WORKASPACE' ) );
#60 = CARTESIAN_POINT ( 'NONE',  ( -7.846150703220955801E-31, 2.752059201184521683E-32, -2.247226876435403813E-16 ) ) ;
#61 = CARTESIAN_POINT ( 'NONE',  ( 2.793185071074506684E-13, -9.797174393178826052E-15, 80.00000000000000000 ) ) ;
#62 = APPROVAL_STATUS ( 'not_yet_approved' ) ;
#63 = LOCAL_TIME ( 13, 56, 20.00000000000000000, #133 ) ;
#64 = AXIS2_PLACEMENT_3D ( 'NONE', #5, #114, #174 ) ;
#65 = VERTEX_POINT ( 'NONE', #86 ) ;
#66 = CC_DESIGN_PERSON_AND_ORGANIZATION_ASSIGNMENT ( #52, #27, ( #163 ) ) ;
#67 = CARTESIAN_POINT ( 'NONE',  ( 0.0000000000000000000, 1.835000000000008624, 0.0000000000000000000 ) ) ;
#68 = PERSON_AND_ORGANIZATION_ROLE ( 'creator' ) ;
#69 = APPROVAL_DATE_TIME ( #45, #91 ) ;
#70 = ADVANCED_FACE ( 'NONE', ( #150, #39 ), #110, .T. ) ;
#71 = DATE_AND_TIME ( #140, #11 ) ;
#72 = ORIENTED_EDGE ( 'NONE', *, *, #182, .F. ) ;
#73 = CC_DESIGN_APPROVAL ( #75, ( #2 ) ) ;
#74 = EDGE_LOOP ( 'NONE', ( #72 ) ) ;
#75 = APPROVAL ( #141, 'UNSPECIFIED' ) ;
#76 = AXIS2_PLACEMENT_3D ( 'NONE', #60, #22, #92 ) ;
#77 = DIRECTION ( 'NONE',  ( 4.275831445896958607E-31, 1.000000000000000000, 1.224646799147353207E-16 ) ) ;
#78 = CARTESIAN_POINT ( 'NONE',  ( 1.396592535537253145E-15, -4.898587196589411843E-17, 0.3999999999999999112 ) ) ;
#79 = DIRECTION ( 'NONE',  ( 4.275831445896958607E-31, 1.000000000000000000, 1.224646799147353207E-16 ) ) ;
#80 = DIRECTION ( 'NONE',  ( 0.0000000000000000000, 1.000000000000000000, 0.0000000000000000000 ) ) ;
#81 = DIRECTION ( 'NONE',  ( 1.000000000000000000, 0.0000000000000000000, 0.0000000000000000000 ) ) ;
#82 = VERTEX_POINT ( 'NONE', #117 ) ;
#83 = APPLICATION_PROTOCOL_DEFINITION ( 'international standard', 'config_control_design', 1994, #118 ) ;
#84 = ADVANCED_FACE ( 'NONE', ( #187 ), #204, .T. ) ;
#85 = PERSON_AND_ORGANIZATION ( #176, #198 ) ;
#86 = CARTESIAN_POINT ( 'NONE',  ( 4.189777606611760026E-14, 2.235000000000008757, 12.00000000000000000 ) ) ;
#87 = ORIENTED_EDGE ( 'NONE', *, *, #50, .T. ) ;
#88 = EDGE_CURVE ( 'NONE', #23, #23, #175, .T. ) ;
#89 = EDGE_LOOP ( 'NONE', ( #87 ) ) ;
#90 = PERSON_AND_ORGANIZATION ( #176, #198 ) ;
#91 = APPROVAL ( #157, 'UNSPECIFIED' ) ;
#92 = DIRECTION ( 'NONE',  ( -4.275831445896958607E-31, -1.000000000000000000, -1.224646799147353207E-16 ) ) ;
#93 = CARTESIAN_POINT ( 'NONE',  ( 2.793185071074506684E-13, -9.797174393178826052E-15, 80.00000000000000000 ) ) ;
#94 = EDGE_CURVE ( 'NONE', #82, #82, #143, .T. ) ;
#95 = CYLINDRICAL_SURFACE ( 'NONE', #21, 2.235000000000010090 ) ;
#96 = DIRECTION ( 'NONE',  ( 0.0000000000000000000, 1.000000000000000000, 0.0000000000000000000 ) ) ;
#97 = FACE_OUTER_BOUND ( 'NONE', #108, .T. ) ;
#98 = AXIS2_PLACEMENT_3D ( 'NONE', #61, #206, #226 ) ;
#99 = AXIS2_PLACEMENT_3D ( 'NONE', #127, #40, #188 ) ;
#100 = COORDINATED_UNIVERSAL_TIME_OFFSET ( 1, 0, .AHEAD. ) ;
#101 =( NAMED_UNIT ( * ) SI_UNIT ( $, .STERADIAN. ) SOLID_ANGLE_UNIT ( ) );
#102 = CC_DESIGN_SECURITY_CLASSIFICATION ( #2, ( #163 ) ) ;
#103 = EDGE_LOOP ( 'NONE', ( #144 ) ) ;
#104 = ADVANCED_FACE ( 'NONE', ( #184, #131 ), #6, .T. ) ;
#105 = APPROVAL_DATE_TIME ( #121, #75 ) ;
#106 = AXIS2_PLACEMENT_3D ( 'NONE', #171, #130, #146 ) ;
#107 = DIRECTION ( 'NONE',  ( -3.491481338843133355E-15, 1.224646799147353207E-16, -1.000000000000000000 ) ) ;
#108 = EDGE_LOOP ( 'NONE', ( #145 ) ) ;
#109 = DIRECTION ( 'NONE',  ( 4.275831445896958607E-31, 1.000000000000000000, 1.224646799147353207E-16 ) ) ;
#110 = CYLINDRICAL_SURFACE ( 'NONE', #229, 1.999999999999996669 ) ;
#111 = DIRECTION ( 'NONE',  ( 0.0000000000000000000, 1.000000000000000000, 0.0000000000000000000 ) ) ;
#112 = AXIS2_PLACEMENT_3D ( 'NONE', #20, #168, #96 ) ;
#113 = CONICAL_SURFACE ( 'NONE', #64, 2.235000000000010090, 0.5235987755983005920 ) ;
#114 = DIRECTION ( 'NONE',  ( -3.491481338843133355E-15, 1.224646799147353207E-16, -1.000000000000000000 ) ) ;
#115 = CC_DESIGN_APPROVAL ( #194, ( #238 ) ) ;
#116 = CALENDAR_DATE ( 2021, 2, 12 ) ;
#117 = CARTESIAN_POINT ( 'NONE',  ( 4.189777606611760026E-14, 2.235000000000008757, 12.00000000000000000 ) ) ;
#118 = APPLICATION_CONTEXT ( 'configuration controlled 3d designs of mechanical parts and assemblies' ) ;
#119 = AXIS2_PLACEMENT_3D ( 'NONE', #34, #225, #205 ) ;
#120 = CONICAL_SURFACE ( 'NONE', #76, 1.835000000000008624, 0.7853981633974497223 ) ;
#121 = DATE_AND_TIME ( #12, #54 ) ;
#122 = APPLICATION_CONTEXT ( 'configuration controlled 3d designs of mechanical parts and assemblies' ) ;
#123 = EDGE_LOOP ( 'NONE', ( #16 ) ) ;
#124 = AXIS2_PLACEMENT_3D ( 'NONE', #207, #242, #77 ) ;
#125 = DIRECTION ( 'NONE',  ( 3.491481338843133355E-15, -1.224646799147353207E-16, 1.000000000000000000 ) ) ;
#126 = ADVANCED_FACE ( 'NONE', ( #17, #208 ), #120, .T. ) ;
#127 = CARTESIAN_POINT ( 'NONE',  ( 2.779219145719134403E-13, -9.748188521212932624E-15, 79.60000000000000853 ) ) ;
#128 = CIRCLE ( 'NONE', #99, 2.000000000000000888 ) ;
#129 = AXIS2_PLACEMENT_3D ( 'NONE', #78, #219, #223 ) ;
#130 = DIRECTION ( 'NONE',  ( 3.491481338843133355E-15, -1.224646799147353207E-16, 1.000000000000000000 ) ) ;
#131 = FACE_BOUND ( 'NONE', #29, .T. ) ;
#132 = CC_DESIGN_PERSON_AND_ORGANIZATION_ASSIGNMENT ( #30, #68, ( #163 ) ) ;
#133 = COORDINATED_UNIVERSAL_TIME_OFFSET ( 1, 0, .AHEAD. ) ;
#134 = APPROVAL_PERSON_ORGANIZATION ( #85, #194, #152 ) ;
#135 =( LENGTH_UNIT ( ) NAMED_UNIT ( * ) SI_UNIT ( .MILLI., .METRE. ) );
#136 = EDGE_CURVE ( 'NONE', #209, #209, #128, .T. ) ;
#137 = CARTESIAN_POINT ( 'NONE',  ( 0.0000000000000000000, 0.0000000000000000000, 0.0000000000000000000 ) ) ;
#138 = CALENDAR_DATE ( 2021, 2, 12 ) ;
#139 = APPROVAL_ROLE ( '' ) ;
#140 = CALENDAR_DATE ( 2021, 2, 12 ) ;
#141 = APPROVAL_STATUS ( 'not_yet_approved' ) ;
#142 = ORIENTED_EDGE ( 'NONE', *, *, #88, .F. ) ;
#143 = CIRCLE ( 'NONE', #153, 2.235000000000010090 ) ;
#144 = ORIENTED_EDGE ( 'NONE', *, *, #165, .F. ) ;
#145 = ORIENTED_EDGE ( 'NONE', *, *, #50, .F. ) ;
#146 = DIRECTION ( 'NONE',  ( -4.275831445896958607E-31, -1.000000000000000000, -1.224646799147353207E-16 ) ) ;
#147 = DIRECTION ( 'NONE',  ( -4.275831445896958607E-31, -1.000000000000000000, -1.224646799147353207E-16 ) ) ;
#148 = PLANE ( 'NONE',  #124 ) ;
#149 = DIRECTION ( 'NONE',  ( -3.491481338843133355E-15, 1.224646799147353207E-16, -1.000000000000000000 ) ) ;
#150 = FACE_OUTER_BOUND ( 'NONE', #161, .T. ) ;
#151 = DATE_AND_TIME ( #116, #154 ) ;
#152 = APPROVAL_ROLE ( '' ) ;
#153 = AXIS2_PLACEMENT_3D ( 'NONE', #18, #149, #80 ) ;
#154 = LOCAL_TIME ( 13, 56, 20.00000000000000000, #211 ) ;
#155 = CARTESIAN_POINT ( 'NONE',  ( 2.793185071074506684E-13, 1.599999999999991207, 80.00000000000000000 ) ) ;
#156 = ADVANCED_FACE ( 'NONE', ( #97 ), #243, .T. ) ;
#157 = APPROVAL_STATUS ( 'not_yet_approved' ) ;
#158 = LOCAL_TIME ( 13, 56, 20.00000000000000000, #100 ) ;
#159 = CC_DESIGN_DATE_AND_TIME_ASSIGNMENT ( #71, #235, ( #2 ) ) ;
#160 = APPROVAL_ROLE ( '' ) ;
#161 = EDGE_LOOP ( 'NONE', ( #142 ) ) ;
#162 = ADVANCED_BREP_SHAPE_REPRESENTATION ( '321673', ( #35, #220, #237 ), #59 ) ;
#163 = PRODUCT_DEFINITION_FORMATION_WITH_SPECIFIED_SOURCE ( 'ANY', '', #33, .NOT_KNOWN. ) ;
#164 = ORIENTED_EDGE ( 'NONE', *, *, #165, .T. ) ;
#165 = EDGE_CURVE ( 'NONE', #196, #196, #49, .T. ) ;
#166 = ORIENTED_EDGE ( 'NONE', *, *, #136, .F. ) ;
#167 = CARTESIAN_POINT ( 'NONE',  ( 0.0000000000000000000, 0.0000000000000000000, 0.0000000000000000000 ) ) ;
#168 = DIRECTION ( 'NONE',  ( -3.491481338843133355E-15, 1.224646799147353207E-16, -1.000000000000000000 ) ) ;
#169 = CARTESIAN_POINT ( 'NONE',  ( 0.0000000000000000000, 0.0000000000000000000, 0.0000000000000000000 ) ) ;
#170 = CARTESIAN_POINT ( 'NONE',  ( 4.189777606611760026E-14, -1.469576158976823947E-15, 12.00000000000000000 ) ) ;
#171 = CARTESIAN_POINT ( 'NONE',  ( 4.189777606611760026E-14, 1.675981557124631268E-32, 12.00000000000000000 ) ) ;
#172 = FACE_OUTER_BOUND ( 'NONE', #201, .T. ) ;
#173 = ADVANCED_FACE ( 'NONE', ( #55 ), #148, .F. ) ;
#174 = DIRECTION ( 'NONE',  ( 0.0000000000000000000, 1.000000000000000000, 0.0000000000000000000 ) ) ;
#175 = CIRCLE ( 'NONE', #112, 1.999999999999992228 ) ;
#176 = PERSON ( 'UNSPECIFIED', 'UNSPECIFIED', 'UNSPECIFIED', ('UNSPECIFIED'), ('UNSPECIFIED'), ('UNSPECIFIED') ) ;
#177 = APPROVAL_PERSON_ORGANIZATION ( #195, #91, #139 ) ;
#178 = PERSON_AND_ORGANIZATION ( #176, #198 ) ;
#179 = APPROVAL_DATE_TIME ( #230, #194 ) ;
#180 = CC_DESIGN_DATE_AND_TIME_ASSIGNMENT ( #151, #10, ( #238 ) ) ;
#181 = CALENDAR_DATE ( 2021, 2, 12 ) ;
#182 = EDGE_CURVE ( 'NONE', #26, #26, #199, .T. ) ;
#183 = EDGE_LOOP ( 'NONE', ( #46 ) ) ;
#184 = FACE_OUTER_BOUND ( 'NONE', #13, .T. ) ;
#185 = PLANE ( 'NONE',  #241 ) ;
#186 = FACE_OUTER_BOUND ( 'NONE', #89, .T. ) ;
#187 = FACE_OUTER_BOUND ( 'NONE', #48, .T. ) ;
#188 = DIRECTION ( 'NONE',  ( 0.0000000000000000000, 1.000000000000000000, 0.0000000000000000000 ) ) ;
#189 = PERSON_AND_ORGANIZATION ( #176, #198 ) ;
#190 = UNCERTAINTY_MEASURE_WITH_UNIT (LENGTH_MEASURE( 1.000000000000000082E-05 ), #135, 'distance_accuracy_value', 'NONE');
#191 = DIRECTION ( 'NONE',  ( 0.0000000000000000000, 0.0000000000000000000, 1.000000000000000000 ) ) ;
#192 = VERTEX_POINT ( 'NONE', #155 ) ;
#193 = CIRCLE ( 'NONE', #224, 2.235000000000010090 ) ;
#194 = APPROVAL ( #62, 'UNSPECIFIED' ) ;
#195 = PERSON_AND_ORGANIZATION ( #176, #198 ) ;
#196 = VERTEX_POINT ( 'NONE', #232 ) ;
#197 = CLOSED_SHELL ( 'NONE', ( #14, #222, #70, #104, #173 ) ) ;
#198 = ORGANIZATION ( 'UNSPECIFIED', 'UNSPECIFIED', '' ) ;
#199 = CIRCLE ( 'NONE', #203, 1.835000000000008624 ) ;
#200 = COORDINATED_UNIVERSAL_TIME_OFFSET ( 1, 0, .AHEAD. ) ;
#201 = EDGE_LOOP ( 'NONE', ( #202 ) ) ;
#202 = ORIENTED_EDGE ( 'NONE', *, *, #94, .F. ) ;
#203 = AXIS2_PLACEMENT_3D ( 'NONE', #57, #37, #109 ) ;
#204 = PLANE ( 'NONE',  #119 ) ;
#205 = DIRECTION ( 'NONE',  ( 4.275831445896958607E-31, 1.000000000000000000, 1.224646799147353207E-16 ) ) ;
#206 = DIRECTION ( 'NONE',  ( -3.491481338843133355E-15, 1.224646799147353207E-16, -1.000000000000000000 ) ) ;
#207 = CARTESIAN_POINT ( 'NONE',  ( 2.793185071074506684E-13, 1.199807826129472128E-32, 80.00000000000000000 ) ) ;
#208 = FACE_BOUND ( 'NONE', #74, .T. ) ;
#209 = VERTEX_POINT ( 'NONE', #7 ) ;
#210 = CC_DESIGN_APPROVAL ( #91, ( #163 ) ) ;
#211 = COORDINATED_UNIVERSAL_TIME_OFFSET ( 1, 0, .AHEAD. ) ;
#212 = MECHANICAL_CONTEXT ( 'NONE', #122, 'mechanical' ) ;
#213 = SHAPE_DEFINITION_REPRESENTATION ( #47, #162 ) ;
#214 = COORDINATED_UNIVERSAL_TIME_OFFSET ( 1, 0, .AHEAD. ) ;
#215 = ORIENTED_EDGE ( 'NONE', *, *, #38, .F. ) ;
#216 = ADVANCED_FACE ( 'NONE', ( #186, #19 ), #95, .T. ) ;
#217 = ORIENTED_EDGE ( 'NONE', *, *, #88, .T. ) ;
#218 = CC_DESIGN_PERSON_AND_ORGANIZATION_ASSIGNMENT ( #178, #25, ( #238 ) ) ;
#219 = DIRECTION ( 'NONE',  ( -3.491481338843133355E-15, 1.224646799147353207E-16, -1.000000000000000000 ) ) ;
#220 = MANIFOLD_SOLID_BREP ( 'Corps-Déplacer/Copier1[2]', #53 ) ;
#221 = CARTESIAN_POINT ( 'NONE',  ( 4.189777606611760026E-14, 1.675981557124631268E-32, 12.00000000000000000 ) ) ;
#222 = ADVANCED_FACE ( 'NONE', ( #9, #172 ), #113, .T. ) ;
#223 = DIRECTION ( 'NONE',  ( 4.308568108248829994E-31, 1.000000000000000000, 1.212754107925614602E-16 ) ) ;
#224 = AXIS2_PLACEMENT_3D ( 'NONE', #170, #107, #111 ) ;
#225 = DIRECTION ( 'NONE',  ( -3.491481338843133355E-15, 1.224646799147353207E-16, -1.000000000000000000 ) ) ;
#226 = DIRECTION ( 'NONE',  ( 0.0000000000000000000, 1.000000000000000000, 0.0000000000000000000 ) ) ;
#227 = CARTESIAN_POINT ( 'NONE',  ( 4.331892048816810303E-14, 1.999999999999990452, 12.40703193977871521 ) ) ;
#228 = PRODUCT_RELATED_PRODUCT_CATEGORY ( 'detail', '', ( #33 ) ) ;
#229 = AXIS2_PLACEMENT_3D ( 'NONE', #167, #4, #79 ) ;
#230 = DATE_AND_TIME ( #138, #158 ) ;
#231 = APPROVAL_PERSON_ORGANIZATION ( #51, #75, #160 ) ;
#232 = CARTESIAN_POINT ( 'NONE',  ( 1.396592535537254131E-15, 2.235000000000010090, 0.4000000000000001887 ) ) ;
#233 = DIRECTION ( 'NONE',  ( 4.275831445896957731E-31, 1.000000000000000000, 1.224646799147352961E-16 ) ) ;
#234 = PERSON_AND_ORGANIZATION_ROLE ( 'classification_officer' ) ;
#235 = DATE_TIME_ROLE ( 'classification_date' ) ;
#236 = EDGE_LOOP ( 'NONE', ( #164 ) ) ;
#237 = AXIS2_PLACEMENT_3D ( 'NONE', #137, #191, #81 ) ;
#238 = PRODUCT_DEFINITION ( 'UNKNOWN', '', #163, #42 ) ;
#239 = EDGE_LOOP ( 'NONE', ( #215 ) ) ;
#240 = ORIENTED_EDGE ( 'NONE', *, *, #38, .T. ) ;
#241 = AXIS2_PLACEMENT_3D ( 'NONE', #221, #125, #147 ) ;
#242 = DIRECTION ( 'NONE',  ( -3.491481338843133355E-15, 1.224646799147353207E-16, -1.000000000000000000 ) ) ;
#243 = PLANE ( 'NONE',  #106 ) ;
ENDSEC;
END-ISO-10303-21;
