ISO-10303-21;
HEADER;
FILE_DESCRIPTION (( 'STEP AP203' ),
    '1' );
FILE_NAME ('321672.step',
    '2021-12-02T12:56:19',
    ( '' ),
    ( '' ),
    'SwSTEP 2.0',
    'SolidWorks 2019',
    '' );
FILE_SCHEMA (( 'CONFIG_CONTROL_DESIGN' ));
ENDSEC;

DATA;
#1 = CARTESIAN_POINT ( 'NONE',  ( 4.189777606611760026E-14, 1.672232157667977144E-32, 12.00000000000000000 ) ) ;
#2 = APPROVAL_PERSON_ORGANIZATION ( #30, #51, #73 ) ;
#3 = FACE_OUTER_BOUND ( 'NONE', #32, .T. ) ;
#4 = DIRECTION ( 'NONE',  ( -3.491481338843133355E-15, 1.224646799147353207E-16, -1.000000000000000000 ) ) ;
#5 = CIRCLE ( 'NONE', #131, 2.230000000000010196 ) ;
#6 = CARTESIAN_POINT ( 'NONE',  ( 2.779219145719134403E-13, 1.999999999999991340, 79.60000000000000853 ) ) ;
#7 = ADVANCED_FACE ( 'NONE', ( #91, #147 ), #15, .T. ) ;
#8 = CARTESIAN_POINT ( 'NONE',  ( 0.0000000000000000000, 0.0000000000000000000, 0.0000000000000000000 ) ) ;
#9 = APPROVAL_ROLE ( '' ) ;
#10 = ORIENTED_EDGE ( 'NONE', *, *, #161, .F. ) ;
#11 = EDGE_LOOP ( 'NONE', ( #188 ) ) ;
#12 = ORIENTED_EDGE ( 'NONE', *, *, #144, .T. ) ;
#13 = CIRCLE ( 'NONE', #171, 1.600000000000000977 ) ;
#14 = CC_DESIGN_DATE_AND_TIME_ASSIGNMENT ( #25, #64, ( #186 ) ) ;
#15 = CYLINDRICAL_SURFACE ( 'NONE', #160, 2.230000000000010196 ) ;
#16 = SECURITY_CLASSIFICATION ( '', '', #98 ) ;
#17 = DIRECTION ( 'NONE',  ( -4.275831445896958607E-31, -1.000000000000000000, -1.224646799147353207E-16 ) ) ;
#18 = CARTESIAN_POINT ( 'NONE',  ( 2.793185071074506684E-13, 1.199807826129472128E-32, 80.00000000000000000 ) ) ;
#19 = CARTESIAN_POINT ( 'NONE',  ( 4.189777606611760026E-14, -1.469576158976823947E-15, 12.00000000000000000 ) ) ;
#20 = CIRCLE ( 'NONE', #206, 2.000000000000000888 ) ;
#21 = CARTESIAN_POINT ( 'NONE',  ( 4.189777606611760026E-14, 1.672232157667977144E-32, 12.00000000000000000 ) ) ;
#22 = PERSON_AND_ORGANIZATION ( #103, #232 ) ;
#23 = ADVANCED_FACE ( 'NONE', ( #36 ), #97, .T. ) ;
#24 = PERSON_AND_ORGANIZATION ( #103, #232 ) ;
#25 = DATE_AND_TIME ( #67, #49 ) ;
#26 = COORDINATED_UNIVERSAL_TIME_OFFSET ( 1, 0, .AHEAD. ) ;
#27 = EDGE_CURVE ( 'NONE', #63, #63, #13, .T. ) ;
#28 = DATE_AND_TIME ( #199, #141 ) ;
#29 = AXIS2_PLACEMENT_3D ( 'NONE', #102, #78, #158 ) ;
#30 = PERSON_AND_ORGANIZATION ( #103, #232 ) ;
#31 = COORDINATED_UNIVERSAL_TIME_OFFSET ( 1, 0, .AHEAD. ) ;
#32 = EDGE_LOOP ( 'NONE', ( #145 ) ) ;
#33 = LOCAL_TIME ( 13, 56, 19.00000000000000000, #31 ) ;
#34 = PLANE ( 'NONE',  #88 ) ;
#35 = CC_DESIGN_PERSON_AND_ORGANIZATION_ASSIGNMENT ( #22, #75, ( #113 ) ) ;
#36 = FACE_OUTER_BOUND ( 'NONE', #74, .T. ) ;
#37 = CIRCLE ( 'NONE', #180, 2.230000000000010196 ) ;
#38 = DIRECTION ( 'NONE',  ( -3.491481338843133355E-15, 1.224646799147353207E-16, -1.000000000000000000 ) ) ;
#39 = LOCAL_TIME ( 13, 56, 19.00000000000000000, #202 ) ;
#40 = DIRECTION ( 'NONE',  ( 0.0000000000000000000, 1.000000000000000000, 0.0000000000000000000 ) ) ;
#41 = PERSON_AND_ORGANIZATION ( #103, #232 ) ;
#42 = DESIGN_CONTEXT ( 'detailed design', #230, 'design' ) ;
#43 = DIRECTION ( 'NONE',  ( 0.0000000000000000000, 0.0000000000000000000, 1.000000000000000000 ) ) ;
#44 = PERSON_AND_ORGANIZATION ( #103, #232 ) ;
#45 =( LENGTH_UNIT ( ) NAMED_UNIT ( * ) SI_UNIT ( .MILLI., .METRE. ) );
#46 = ADVANCED_FACE ( 'NONE', ( #152 ), #34, .T. ) ;
#47 = ORIENTED_EDGE ( 'NONE', *, *, #27, .F. ) ;
#48 = APPROVAL_DATE_TIME ( #151, #51 ) ;
#49 = LOCAL_TIME ( 13, 56, 19.00000000000000000, #26 ) ;
#50 = CALENDAR_DATE ( 2021, 2, 12 ) ;
#51 = APPROVAL ( #215, 'UNSPECIFIED' ) ;
#52 = CONICAL_SURFACE ( 'NONE', #210, 1.600000000000000977, 0.7853981633974512766 ) ;
#53 = CARTESIAN_POINT ( 'NONE',  ( 0.0000000000000000000, 0.0000000000000000000, 0.0000000000000000000 ) ) ;
#54 = DIRECTION ( 'NONE',  ( -3.491481338843133355E-15, 1.224646799147353207E-16, -1.000000000000000000 ) ) ;
#55 = DIRECTION ( 'NONE',  ( -3.491481338843133355E-15, 1.224646799147353207E-16, -1.000000000000000000 ) ) ;
#56 = CLOSED_SHELL ( 'NONE', ( #92, #178, #228, #170, #96 ) ) ;
#57 = EDGE_CURVE ( 'NONE', #85, #85, #217, .T. ) ;
#58 = DIRECTION ( 'NONE',  ( 0.0000000000000000000, 1.000000000000000000, 0.0000000000000000000 ) ) ;
#59 = DIRECTION ( 'NONE',  ( -4.275831445896958607E-31, -1.000000000000000000, -1.224646799147353207E-16 ) ) ;
#60 = FACE_OUTER_BOUND ( 'NONE', #94, .T. ) ;
#61 = AXIS2_PLACEMENT_3D ( 'NONE', #19, #55, #177 ) ;
#62 = APPLICATION_PROTOCOL_DEFINITION ( 'international standard', 'config_control_design', 1994, #230 ) ;
#63 = VERTEX_POINT ( 'NONE', #140 ) ;
#64 = DATE_TIME_ROLE ( 'creation_date' ) ;
#65 = CC_DESIGN_APPROVAL ( #51, ( #16 ) ) ;
#66 = CALENDAR_DATE ( 2021, 2, 12 ) ;
#67 = CALENDAR_DATE ( 2021, 2, 12 ) ;
#68 = EDGE_LOOP ( 'NONE', ( #203 ) ) ;
#69 = EDGE_CURVE ( 'NONE', #198, #198, #175, .T. ) ;
#70 = EDGE_LOOP ( 'NONE', ( #218 ) ) ;
#71 = APPROVAL_PERSON_ORGANIZATION ( #182, #167, #9 ) ;
#72 = EDGE_LOOP ( 'NONE', ( #127 ) ) ;
#73 = APPROVAL_ROLE ( '' ) ;
#74 = EDGE_LOOP ( 'NONE', ( #114 ) ) ;
#75 = PERSON_AND_ORGANIZATION_ROLE ( 'design_supplier' ) ;
#76 = AXIS2_PLACEMENT_3D ( 'NONE', #159, #231, #135 ) ;
#77 = PRODUCT_DEFINITION_SHAPE ( 'NONE', 'NONE',  #186 ) ;
#78 = DIRECTION ( 'NONE',  ( -3.491481338843133355E-15, 1.224646799147353207E-16, -1.000000000000000000 ) ) ;
#79 = PLANE ( 'NONE',  #156 ) ;
#80 = CARTESIAN_POINT ( 'NONE',  ( 4.328868337280534061E-14, -1.518362619958173221E-15, 12.39837168574087300 ) ) ;
#81 = CC_DESIGN_APPROVAL ( #109, ( #186 ) ) ;
#82 = CYLINDRICAL_SURFACE ( 'NONE', #76, 1.999999999999996669 ) ;
#83 = CC_DESIGN_PERSON_AND_ORGANIZATION_ASSIGNMENT ( #123, #197, ( #186 ) ) ;
#84 = DIRECTION ( 'NONE',  ( 0.0000000000000000000, 1.000000000000000000, 0.0000000000000000000 ) ) ;
#85 = VERTEX_POINT ( 'NONE', #121 ) ;
#86 = PRODUCT_RELATED_PRODUCT_CATEGORY ( 'detail', '', ( #227 ) ) ;
#87 = VERTEX_POINT ( 'NONE', #6 ) ;
#88 = AXIS2_PLACEMENT_3D ( 'NONE', #1, #223, #242 ) ;
#89 = EDGE_LOOP ( 'NONE', ( #125 ) ) ;
#90 = MECHANICAL_CONTEXT ( 'NONE', #142, 'mechanical' ) ;
#91 = FACE_OUTER_BOUND ( 'NONE', #68, .T. ) ;
#92 = ADVANCED_FACE ( 'NONE', ( #60 ), #79, .F. ) ;
#93 = SHAPE_DEFINITION_REPRESENTATION ( #77, #208 ) ;
#94 = EDGE_LOOP ( 'NONE', ( #220 ) ) ;
#95 = CONICAL_SURFACE ( 'NONE', #61, 2.230000000000010196, 0.5235987755982999259 ) ;
#96 = ADVANCED_FACE ( 'NONE', ( #130 ), #116, .F. ) ;
#97 = PLANE ( 'NONE',  #221 ) ;
#98 = SECURITY_CLASSIFICATION_LEVEL ( 'unclassified' ) ;
#99 = LOCAL_TIME ( 13, 56, 19.00000000000000000, #138 ) ;
#100 = CARTESIAN_POINT ( 'NONE',  ( 4.189777606611760026E-14, -1.469576158976823947E-15, 12.00000000000000000 ) ) ;
#101 = CC_DESIGN_DATE_AND_TIME_ASSIGNMENT ( #149, #219, ( #16 ) ) ;
#102 = CARTESIAN_POINT ( 'NONE',  ( -7.824771545991472838E-31, 2.744560402271213435E-32, -2.241103642439667430E-16 ) ) ;
#103 = PERSON ( 'UNSPECIFIED', 'UNSPECIFIED', 'UNSPECIFIED', ('UNSPECIFIED'), ('UNSPECIFIED'), ('UNSPECIFIED') ) ;
#104 = FACE_OUTER_BOUND ( 'NONE', #166, .T. ) ;
#105 = DIRECTION ( 'NONE',  ( 4.275831445896958607E-31, 1.000000000000000000, 1.224646799147353207E-16 ) ) ;
#106 =( NAMED_UNIT ( * ) SI_UNIT ( $, .STERADIAN. ) SOLID_ANGLE_UNIT ( ) );
#107 = APPROVAL_DATE_TIME ( #110, #109 ) ;
#108 = AXIS2_PLACEMENT_3D ( 'NONE', #193, #118, #17 ) ;
#109 = APPROVAL ( #212, 'UNSPECIFIED' ) ;
#110 = DATE_AND_TIME ( #66, #99 ) ;
#111 = CALENDAR_DATE ( 2021, 2, 12 ) ;
#112 = EDGE_LOOP ( 'NONE', ( #164 ) ) ;
#113 = PRODUCT_DEFINITION_FORMATION_WITH_SPECIFIED_SOURCE ( 'ANY', '', #227, .NOT_KNOWN. ) ;
#114 = ORIENTED_EDGE ( 'NONE', *, *, #57, .T. ) ;
#115 = PERSON_AND_ORGANIZATION_ROLE ( 'classification_officer' ) ;
#116 = PLANE ( 'NONE',  #184 ) ;
#117 = FACE_BOUND ( 'NONE', #112, .T. ) ;
#118 = DIRECTION ( 'NONE',  ( 3.491481338843133355E-15, -1.224646799147353207E-16, 1.000000000000000000 ) ) ;
#119 = VERTEX_POINT ( 'NONE', #120 ) ;
#120 = CARTESIAN_POINT ( 'NONE',  ( 4.189777606611760026E-14, 2.230000000000008864, 12.00000000000000000 ) ) ;
#121 = CARTESIAN_POINT ( 'NONE',  ( 0.0000000000000000000, 1.830000000000008953, 0.0000000000000000000 ) ) ;
#122 = AXIS2_PLACEMENT_3D ( 'NONE', #80, #132, #226 ) ;
#123 = PERSON_AND_ORGANIZATION ( #103, #232 ) ;
#124 = CC_DESIGN_PERSON_AND_ORGANIZATION_ASSIGNMENT ( #24, #162, ( #227 ) ) ;
#125 = ORIENTED_EDGE ( 'NONE', *, *, #189, .T. ) ;
#126 = MANIFOLD_SOLID_BREP ( 'Corps-Déplacer/Copier1[1]', #56 ) ;
#127 = ORIENTED_EDGE ( 'NONE', *, *, #69, .F. ) ;
#128 = MANIFOLD_SOLID_BREP ( 'Corps-Déplacer/Copier1[2]', #238 ) ;
#129 = DIRECTION ( 'NONE',  ( -3.491481338843133355E-15, 1.224646799147353207E-16, -1.000000000000000000 ) ) ;
#130 = FACE_OUTER_BOUND ( 'NONE', #236, .T. ) ;
#131 = AXIS2_PLACEMENT_3D ( 'NONE', #100, #173, #243 ) ;
#132 = DIRECTION ( 'NONE',  ( -3.491481338843133355E-15, 1.224646799147353207E-16, -1.000000000000000000 ) ) ;
#133 = DIRECTION ( 'NONE',  ( -3.491481338843133355E-15, 1.224646799147353207E-16, -1.000000000000000000 ) ) ;
#134 = DIRECTION ( 'NONE',  ( 0.0000000000000000000, 1.000000000000000000, 0.0000000000000000000 ) ) ;
#135 = DIRECTION ( 'NONE',  ( 4.275831445896958607E-31, 1.000000000000000000, 1.224646799147353207E-16 ) ) ;
#136 = APPROVAL_PERSON_ORGANIZATION ( #44, #109, #234 ) ;
#137 = UNCERTAINTY_MEASURE_WITH_UNIT (LENGTH_MEASURE( 1.000000000000000082E-05 ), #45, 'distance_accuracy_value', 'NONE');
#138 = COORDINATED_UNIVERSAL_TIME_OFFSET ( 1, 0, .AHEAD. ) ;
#139 = CC_DESIGN_PERSON_AND_ORGANIZATION_ASSIGNMENT ( #41, #195, ( #113 ) ) ;
#140 = CARTESIAN_POINT ( 'NONE',  ( 2.793185071074506684E-13, 1.599999999999991207, 80.00000000000000000 ) ) ;
#141 = LOCAL_TIME ( 13, 56, 19.00000000000000000, #214 ) ;
#142 = APPLICATION_CONTEXT ( 'configuration controlled 3d designs of mechanical parts and assemblies' ) ;
#143 = APPROVAL_STATUS ( 'not_yet_approved' ) ;
#144 = EDGE_CURVE ( 'NONE', #87, #87, #20, .T. ) ;
#145 = ORIENTED_EDGE ( 'NONE', *, *, #69, .T. ) ;
#146 = APPROVAL_DATE_TIME ( #28, #167 ) ;
#147 = FACE_OUTER_BOUND ( 'NONE', #72, .T. ) ;
#148 = CONICAL_SURFACE ( 'NONE', #108, 1.830000000000008953, 0.7853981633974498333 ) ;
#149 = DATE_AND_TIME ( #111, #39 ) ;
#150 = ADVANCED_FACE ( 'NONE', ( #3, #192 ), #148, .T. ) ;
#151 = DATE_AND_TIME ( #50, #33 ) ;
#152 = FACE_OUTER_BOUND ( 'NONE', #239, .T. ) ;
#153 = CARTESIAN_POINT ( 'NONE',  ( 2.793185071074506684E-13, -9.797174393178826052E-15, 80.00000000000000000 ) ) ;
#154 = CARTESIAN_POINT ( 'NONE',  ( 2.779219145719134403E-13, -9.748188521212932624E-15, 79.60000000000000853 ) ) ;
#155 = FACE_OUTER_BOUND ( 'NONE', #70, .T. ) ;
#156 = AXIS2_PLACEMENT_3D ( 'NONE', #21, #205, #59 ) ;
#157 = CARTESIAN_POINT ( 'NONE',  ( 1.396592535537252750E-15, -4.898587196589410610E-17, 0.3999999999999998002 ) ) ;
#158 = DIRECTION ( 'NONE',  ( 4.275831445896958607E-31, 1.000000000000000000, 1.224646799147353207E-16 ) ) ;
#159 = CARTESIAN_POINT ( 'NONE',  ( 0.0000000000000000000, 0.0000000000000000000, 0.0000000000000000000 ) ) ;
#160 = AXIS2_PLACEMENT_3D ( 'NONE', #53, #129, #204 ) ;
#161 = EDGE_CURVE ( 'NONE', #183, #183, #5, .T. ) ;
#162 = PERSON_AND_ORGANIZATION_ROLE ( 'design_owner' ) ;
#163 = VERTEX_POINT ( 'NONE', #179 ) ;
#164 = ORIENTED_EDGE ( 'NONE', *, *, #27, .T. ) ;
#165 = ORIENTED_EDGE ( 'NONE', *, *, #144, .F. ) ;
#166 = EDGE_LOOP ( 'NONE', ( #240 ) ) ;
#167 = APPROVAL ( #143, 'UNSPECIFIED' ) ;
#168 = EDGE_LOOP ( 'NONE', ( #165 ) ) ;
#169 = DIRECTION ( 'NONE',  ( 4.275831445896958607E-31, 1.000000000000000000, 1.224646799147353207E-16 ) ) ;
#170 = ADVANCED_FACE ( 'NONE', ( #174, #117 ), #52, .T. ) ;
#171 = AXIS2_PLACEMENT_3D ( 'NONE', #153, #222, #40 ) ;
#172 = AXIS2_PLACEMENT_3D ( 'NONE', #157, #4, #224 ) ;
#173 = DIRECTION ( 'NONE',  ( -3.491481338843133355E-15, 1.224646799147353207E-16, -1.000000000000000000 ) ) ;
#174 = FACE_OUTER_BOUND ( 'NONE', #168, .T. ) ;
#175 = CIRCLE ( 'NONE', #172, 2.230000000000010196 ) ;
#176 = FACE_OUTER_BOUND ( 'NONE', #200, .T. ) ;
#177 = DIRECTION ( 'NONE',  ( 0.0000000000000000000, 1.000000000000000000, 0.0000000000000000000 ) ) ;
#178 = ADVANCED_FACE ( 'NONE', ( #194, #155 ), #95, .T. ) ;
#179 = CARTESIAN_POINT ( 'NONE',  ( 4.328868337280534061E-14, 1.999999999999990452, 12.39837168574087300 ) ) ;
#180 = AXIS2_PLACEMENT_3D ( 'NONE', #209, #133, #58 ) ;
#181 =( NAMED_UNIT ( * ) PLANE_ANGLE_UNIT ( ) SI_UNIT ( $, .RADIAN. ) );
#182 = PERSON_AND_ORGANIZATION ( #103, #232 ) ;
#183 = VERTEX_POINT ( 'NONE', #211 ) ;
#184 = AXIS2_PLACEMENT_3D ( 'NONE', #18, #38, #105 ) ;
#185 = PERSON_AND_ORGANIZATION ( #103, #232 ) ;
#186 = PRODUCT_DEFINITION ( 'UNKNOWN', '', #113, #42 ) ;
#187 =( GEOMETRIC_REPRESENTATION_CONTEXT ( 3 ) GLOBAL_UNCERTAINTY_ASSIGNED_CONTEXT ( ( #137 ) ) GLOBAL_UNIT_ASSIGNED_CONTEXT ( ( #45, #181, #106 ) ) REPRESENTATION_CONTEXT ( 'NONE', 'WORKASPACE' ) );
#188 = ORIENTED_EDGE ( 'NONE', *, *, #57, .F. ) ;
#189 = EDGE_CURVE ( 'NONE', #163, #163, #225, .T. ) ;
#190 = CARTESIAN_POINT ( 'NONE',  ( -3.912385772995736419E-31, 1.372280201135606718E-32, -1.120551821219833715E-16 ) ) ;
#191 = CC_DESIGN_APPROVAL ( #167, ( #113 ) ) ;
#192 = FACE_BOUND ( 'NONE', #11, .T. ) ;
#193 = CARTESIAN_POINT ( 'NONE',  ( -7.824771545991472838E-31, 2.744560402271213435E-32, -2.241103642439667430E-16 ) ) ;
#194 = FACE_BOUND ( 'NONE', #89, .T. ) ;
#195 = PERSON_AND_ORGANIZATION_ROLE ( 'creator' ) ;
#196 = DIRECTION ( 'NONE',  ( 1.000000000000000000, 0.0000000000000000000, 0.0000000000000000000 ) ) ;
#197 = PERSON_AND_ORGANIZATION_ROLE ( 'creator' ) ;
#198 = VERTEX_POINT ( 'NONE', #233 ) ;
#199 = CALENDAR_DATE ( 2021, 2, 12 ) ;
#200 = EDGE_LOOP ( 'NONE', ( #12 ) ) ;
#201 = CC_DESIGN_PERSON_AND_ORGANIZATION_ASSIGNMENT ( #185, #115, ( #16 ) ) ;
#202 = COORDINATED_UNIVERSAL_TIME_OFFSET ( 1, 0, .AHEAD. ) ;
#203 = ORIENTED_EDGE ( 'NONE', *, *, #161, .T. ) ;
#204 = DIRECTION ( 'NONE',  ( 4.275831445896958607E-31, 1.000000000000000000, 1.224646799147353207E-16 ) ) ;
#205 = DIRECTION ( 'NONE',  ( 3.491481338843133355E-15, -1.224646799147353207E-16, 1.000000000000000000 ) ) ;
#206 = AXIS2_PLACEMENT_3D ( 'NONE', #154, #54, #84 ) ;
#207 = DIRECTION ( 'NONE',  ( -3.491481338843133355E-15, 1.224646799147353207E-16, -1.000000000000000000 ) ) ;
#208 = ADVANCED_BREP_SHAPE_REPRESENTATION ( '321672', ( #126, #128, #213 ), #187 ) ;
#209 = CARTESIAN_POINT ( 'NONE',  ( 4.189777606611760026E-14, -1.469576158976823947E-15, 12.00000000000000000 ) ) ;
#210 = AXIS2_PLACEMENT_3D ( 'NONE', #229, #207, #134 ) ;
#211 = CARTESIAN_POINT ( 'NONE',  ( 4.189777606611760026E-14, 2.230000000000008864, 12.00000000000000000 ) ) ;
#212 = APPROVAL_STATUS ( 'not_yet_approved' ) ;
#213 = AXIS2_PLACEMENT_3D ( 'NONE', #8, #43, #196 ) ;
#214 = COORDINATED_UNIVERSAL_TIME_OFFSET ( 1, 0, .AHEAD. ) ;
#215 = APPROVAL_STATUS ( 'not_yet_approved' ) ;
#216 = EDGE_CURVE ( 'NONE', #119, #119, #37, .T. ) ;
#217 = CIRCLE ( 'NONE', #29, 1.830000000000008953 ) ;
#218 = ORIENTED_EDGE ( 'NONE', *, *, #216, .F. ) ;
#219 = DATE_TIME_ROLE ( 'classification_date' ) ;
#220 = ORIENTED_EDGE ( 'NONE', *, *, #216, .T. ) ;
#221 = AXIS2_PLACEMENT_3D ( 'NONE', #190, #241, #169 ) ;
#222 = DIRECTION ( 'NONE',  ( -3.491481338843133355E-15, 1.224646799147353207E-16, -1.000000000000000000 ) ) ;
#223 = DIRECTION ( 'NONE',  ( 3.491481338843133355E-15, -1.224646799147353207E-16, 1.000000000000000000 ) ) ;
#224 = DIRECTION ( 'NONE',  ( 4.318228574859253560E-31, 1.000000000000000000, 1.215473287539797645E-16 ) ) ;
#225 = CIRCLE ( 'NONE', #122, 1.999999999999992228 ) ;
#226 = DIRECTION ( 'NONE',  ( 0.0000000000000000000, 1.000000000000000000, 0.0000000000000000000 ) ) ;
#227 = PRODUCT ( '321672', '321672', '', ( #90 ) ) ;
#228 = ADVANCED_FACE ( 'NONE', ( #104, #176 ), #82, .T. ) ;
#229 = CARTESIAN_POINT ( 'NONE',  ( 2.793185071074506684E-13, -9.797174393178826052E-15, 80.00000000000000000 ) ) ;
#230 = APPLICATION_CONTEXT ( 'configuration controlled 3d designs of mechanical parts and assemblies' ) ;
#231 = DIRECTION ( 'NONE',  ( -3.491481338843133355E-15, 1.224646799147353207E-16, -1.000000000000000000 ) ) ;
#232 = ORGANIZATION ( 'UNSPECIFIED', 'UNSPECIFIED', '' ) ;
#233 = CARTESIAN_POINT ( 'NONE',  ( 1.396592535537253737E-15, 2.230000000000010196, 0.4000000000000000777 ) ) ;
#234 = APPROVAL_ROLE ( '' ) ;
#235 = CC_DESIGN_SECURITY_CLASSIFICATION ( #16, ( #113 ) ) ;
#236 = EDGE_LOOP ( 'NONE', ( #47 ) ) ;
#237 = APPLICATION_PROTOCOL_DEFINITION ( 'international standard', 'config_control_design', 1994, #142 ) ;
#238 = CLOSED_SHELL ( 'NONE', ( #7, #46, #23, #150 ) ) ;
#239 = EDGE_LOOP ( 'NONE', ( #10 ) ) ;
#240 = ORIENTED_EDGE ( 'NONE', *, *, #189, .F. ) ;
#241 = DIRECTION ( 'NONE',  ( -3.491481338843133355E-15, 1.224646799147353207E-16, -1.000000000000000000 ) ) ;
#242 = DIRECTION ( 'NONE',  ( -4.275831445896958607E-31, -1.000000000000000000, -1.224646799147353207E-16 ) ) ;
#243 = DIRECTION ( 'NONE',  ( 0.0000000000000000000, 1.000000000000000000, 0.0000000000000000000 ) ) ;
ENDSEC;
END-ISO-10303-21;
