ISO-10303-21;
HEADER;
FILE_DESCRIPTION (( 'STEP AP203' ),
    '1' );
FILE_NAME ('321671.step',
    '2021-12-02T12:56:18',
    ( '' ),
    ( '' ),
    'SwSTEP 2.0',
    'SolidWorks 2019',
    '' );
FILE_SCHEMA (( 'CONFIG_CONTROL_DESIGN' ));
ENDSEC;

DATA;
#1 = ORIENTED_EDGE ( 'NONE', *, *, #186, .T. ) ;
#2 = VERTEX_POINT ( 'NONE', #77 ) ;
#3 = AXIS2_PLACEMENT_3D ( 'NONE', #221, #219, #147 ) ;
#4 = CARTESIAN_POINT ( 'NONE',  ( 4.325844625744255925E-14, 1.999999999999990452, 12.38971143170302724 ) ) ;
#5 = ADVANCED_FACE ( 'NONE', ( #88, #241 ), #90, .T. ) ;
#6 = PLANE ( 'NONE',  #100 ) ;
#7 = COORDINATED_UNIVERSAL_TIME_OFFSET ( 1, 0, .AHEAD. ) ;
#8 = APPLICATION_CONTEXT ( 'configuration controlled 3d designs of mechanical parts and assemblies' ) ;
#9 = DATE_AND_TIME ( #142, #236 ) ;
#10 = PERSON_AND_ORGANIZATION_ROLE ( 'design_supplier' ) ;
#11 = PRODUCT_RELATED_PRODUCT_CATEGORY ( 'detail', '', ( #181 ) ) ;
#12 = CALENDAR_DATE ( 2021, 2, 12 ) ;
#13 = EDGE_LOOP ( 'NONE', ( #223 ) ) ;
#14 = ORIENTED_EDGE ( 'NONE', *, *, #205, .F. ) ;
#15 = PLANE ( 'NONE',  #203 ) ;
#16 = EDGE_LOOP ( 'NONE', ( #127 ) ) ;
#17 = APPLICATION_CONTEXT ( 'configuration controlled 3d designs of mechanical parts and assemblies' ) ;
#18 = EDGE_LOOP ( 'NONE', ( #172 ) ) ;
#19 = DIRECTION ( 'NONE',  ( 0.0000000000000000000, 1.000000000000000000, 0.0000000000000000000 ) ) ;
#20 =( LENGTH_UNIT ( ) NAMED_UNIT ( * ) SI_UNIT ( .MILLI., .METRE. ) );
#21 = APPROVAL_PERSON_ORGANIZATION ( #160, #139, #66 ) ;
#22 = EDGE_CURVE ( 'NONE', #170, #170, #184, .T. ) ;
#23 = CARTESIAN_POINT ( 'NONE',  ( 0.0000000000000000000, 1.825000000000008615, 0.0000000000000000000 ) ) ;
#24 = CARTESIAN_POINT ( 'NONE',  ( -7.803392388761987248E-31, 2.737061603357902998E-32, -2.234980408443930062E-16 ) ) ;
#25 = MECHANICAL_CONTEXT ( 'NONE', #8, 'mechanical' ) ;
#26 = APPROVAL_STATUS ( 'not_yet_approved' ) ;
#27 = CONICAL_SURFACE ( 'NONE', #227, 1.825000000000008615, 0.7853981633974497223 ) ;
#28 = APPROVAL_DATE_TIME ( #233, #58 ) ;
#29 = CC_DESIGN_PERSON_AND_ORGANIZATION_ASSIGNMENT ( #177, #10, ( #165 ) ) ;
#30 = LOCAL_TIME ( 13, 56, 18.00000000000000000, #7 ) ;
#31 = DIRECTION ( 'NONE',  ( -3.491481338843133355E-15, 1.224646799147353207E-16, -1.000000000000000000 ) ) ;
#32 = FACE_OUTER_BOUND ( 'NONE', #209, .T. ) ;
#33 = CIRCLE ( 'NONE', #140, 1.825000000000008615 ) ;
#34 = CARTESIAN_POINT ( 'NONE',  ( 4.189777606611760026E-14, 1.668482758211322199E-32, 12.00000000000000000 ) ) ;
#35 = AXIS2_PLACEMENT_3D ( 'NONE', #123, #37, #187 ) ;
#36 = DIRECTION ( 'NONE',  ( -3.491481338843133355E-15, 1.224646799147353207E-16, -1.000000000000000000 ) ) ;
#37 = DIRECTION ( 'NONE',  ( -3.491481338843133355E-15, 1.224646799147353207E-16, -1.000000000000000000 ) ) ;
#38 = EDGE_LOOP ( 'NONE', ( #40 ) ) ;
#39 = DIRECTION ( 'NONE',  ( 0.0000000000000000000, 1.000000000000000000, 0.0000000000000000000 ) ) ;
#40 = ORIENTED_EDGE ( 'NONE', *, *, #186, .F. ) ;
#41 = FACE_BOUND ( 'NONE', #151, .T. ) ;
#42 = CARTESIAN_POINT ( 'NONE',  ( 0.0000000000000000000, 0.0000000000000000000, 0.0000000000000000000 ) ) ;
#43 = CC_DESIGN_APPROVAL ( #139, ( #149 ) ) ;
#44 = CARTESIAN_POINT ( 'NONE',  ( 1.396592535537253145E-15, -4.898587196589411843E-17, 0.3999999999999999112 ) ) ;
#45 = DATE_AND_TIME ( #235, #115 ) ;
#46 = FACE_BOUND ( 'NONE', #16, .T. ) ;
#47 = MANIFOLD_SOLID_BREP ( 'Corps-Déplacer/Copier1[2]', #67 ) ;
#48 = DATE_AND_TIME ( #215, #30 ) ;
#49 = AXIS2_PLACEMENT_3D ( 'NONE', #108, #201, #86 ) ;
#50 = APPROVAL_STATUS ( 'not_yet_approved' ) ;
#51 = ADVANCED_FACE ( 'NONE', ( #69, #121 ), #52, .T. ) ;
#52 = CYLINDRICAL_SURFACE ( 'NONE', #3, 1.999999999999996669 ) ;
#53 = DIRECTION ( 'NONE',  ( 0.0000000000000000000, 1.000000000000000000, 0.0000000000000000000 ) ) ;
#54 = CARTESIAN_POINT ( 'NONE',  ( 2.793185071074506684E-13, 1.599999999999991207, 80.00000000000000000 ) ) ;
#55 = CARTESIAN_POINT ( 'NONE',  ( 2.779219145719134403E-13, -9.748188521212932624E-15, 79.60000000000000853 ) ) ;
#56 = AXIS2_PLACEMENT_3D ( 'NONE', #44, #92, #148 ) ;
#57 = DIRECTION ( 'NONE',  ( 3.491481338843133355E-15, -1.224646799147353207E-16, 1.000000000000000000 ) ) ;
#58 = APPROVAL ( #193, 'UNSPECIFIED' ) ;
#59 = CARTESIAN_POINT ( 'NONE',  ( 4.189777606611760026E-14, -1.469576158976823947E-15, 12.00000000000000000 ) ) ;
#60 = EDGE_LOOP ( 'NONE', ( #169 ) ) ;
#61 = CARTESIAN_POINT ( 'NONE',  ( 4.189777606611760026E-14, 2.225000000000008527, 12.00000000000000000 ) ) ;
#62 = CARTESIAN_POINT ( 'NONE',  ( 4.189777606611760026E-14, -1.469576158976823947E-15, 12.00000000000000000 ) ) ;
#63 = COORDINATED_UNIVERSAL_TIME_OFFSET ( 1, 0, .AHEAD. ) ;
#64 = CC_DESIGN_PERSON_AND_ORGANIZATION_ASSIGNMENT ( #234, #83, ( #149 ) ) ;
#65 = PERSON_AND_ORGANIZATION ( #178, #85 ) ;
#66 = APPROVAL_ROLE ( '' ) ;
#67 = CLOSED_SHELL ( 'NONE', ( #5, #224, #143, #116 ) ) ;
#68 = CC_DESIGN_PERSON_AND_ORGANIZATION_ASSIGNMENT ( #157, #218, ( #165 ) ) ;
#69 = FACE_OUTER_BOUND ( 'NONE', #239, .T. ) ;
#70 = DIRECTION ( 'NONE',  ( -4.275831445896958607E-31, -1.000000000000000000, -1.224646799147353207E-16 ) ) ;
#71 = EDGE_LOOP ( 'NONE', ( #111 ) ) ;
#72 = APPLICATION_PROTOCOL_DEFINITION ( 'international standard', 'config_control_design', 1994, #8 ) ;
#73 = ORIENTED_EDGE ( 'NONE', *, *, #154, .T. ) ;
#74 = CC_DESIGN_APPROVAL ( #107, ( #165 ) ) ;
#75 = EDGE_CURVE ( 'NONE', #189, #189, #238, .T. ) ;
#76 = ORIENTED_EDGE ( 'NONE', *, *, #97, .T. ) ;
#77 = CARTESIAN_POINT ( 'NONE',  ( 4.189777606611760026E-14, 2.225000000000008527, 12.00000000000000000 ) ) ;
#78 =( GEOMETRIC_REPRESENTATION_CONTEXT ( 3 ) GLOBAL_UNCERTAINTY_ASSIGNED_CONTEXT ( ( #122 ) ) GLOBAL_UNIT_ASSIGNED_CONTEXT ( ( #20, #222, #229 ) ) REPRESENTATION_CONTEXT ( 'NONE', 'WORKASPACE' ) );
#79 = AXIS2_PLACEMENT_3D ( 'NONE', #167, #204, #220 ) ;
#80 = DIRECTION ( 'NONE',  ( 0.0000000000000000000, 1.000000000000000000, 0.0000000000000000000 ) ) ;
#81 = APPROVAL_DATE_TIME ( #9, #107 ) ;
#82 = APPROVAL_ROLE ( '' ) ;
#83 = PERSON_AND_ORGANIZATION_ROLE ( 'classification_officer' ) ;
#84 = APPLICATION_PROTOCOL_DEFINITION ( 'international standard', 'config_control_design', 1994, #17 ) ;
#85 = ORGANIZATION ( 'UNSPECIFIED', 'UNSPECIFIED', '' ) ;
#86 = DIRECTION ( 'NONE',  ( 4.275831445896959482E-31, 1.000000000000000000, 1.224646799147353207E-16 ) ) ;
#87 = LOCAL_TIME ( 13, 56, 18.00000000000000000, #159 ) ;
#88 = FACE_OUTER_BOUND ( 'NONE', #126, .T. ) ;
#89 = CC_DESIGN_PERSON_AND_ORGANIZATION_ASSIGNMENT ( #137, #214, ( #132 ) ) ;
#90 = CYLINDRICAL_SURFACE ( 'NONE', #49, 2.225000000000009859 ) ;
#91 = ORIENTED_EDGE ( 'NONE', *, *, #231, .F. ) ;
#92 = DIRECTION ( 'NONE',  ( -3.491481338843133355E-15, 1.224646799147353207E-16, -1.000000000000000000 ) ) ;
#93 = EDGE_LOOP ( 'NONE', ( #91 ) ) ;
#94 = APPROVAL_PERSON_ORGANIZATION ( #118, #107, #101 ) ;
#95 = CLOSED_SHELL ( 'NONE', ( #240, #144, #51, #163, #136 ) ) ;
#96 = FACE_OUTER_BOUND ( 'NONE', #71, .T. ) ;
#97 = EDGE_CURVE ( 'NONE', #2, #2, #195, .T. ) ;
#98 = SECURITY_CLASSIFICATION_LEVEL ( 'unclassified' ) ;
#99 = DATE_TIME_ROLE ( 'creation_date' ) ;
#100 = AXIS2_PLACEMENT_3D ( 'NONE', #34, #156, #146 ) ;
#101 = APPROVAL_ROLE ( '' ) ;
#102 = FACE_OUTER_BOUND ( 'NONE', #38, .T. ) ;
#103 = DATE_TIME_ROLE ( 'classification_date' ) ;
#104 = CIRCLE ( 'NONE', #162, 2.225000000000009859 ) ;
#105 = FACE_BOUND ( 'NONE', #18, .T. ) ;
#106 = ORIENTED_EDGE ( 'NONE', *, *, #97, .F. ) ;
#107 = APPROVAL ( #26, 'UNSPECIFIED' ) ;
#108 = CARTESIAN_POINT ( 'NONE',  ( 0.0000000000000000000, 0.0000000000000000000, 0.0000000000000000000 ) ) ;
#109 = EDGE_LOOP ( 'NONE', ( #1 ) ) ;
#110 = DIRECTION ( 'NONE',  ( 3.491481338843133355E-15, -1.224646799147353207E-16, 1.000000000000000000 ) ) ;
#111 = ORIENTED_EDGE ( 'NONE', *, *, #75, .F. ) ;
#112 = VERTEX_POINT ( 'NONE', #117 ) ;
#113 = DIRECTION ( 'NONE',  ( 0.0000000000000000000, 0.0000000000000000000, 1.000000000000000000 ) ) ;
#114 = DESIGN_CONTEXT ( 'detailed design', #17, 'design' ) ;
#115 = LOCAL_TIME ( 13, 56, 18.00000000000000000, #63 ) ;
#116 = ADVANCED_FACE ( 'NONE', ( #225, #105 ), #27, .T. ) ;
#117 = CARTESIAN_POINT ( 'NONE',  ( 1.396592535537254131E-15, 2.225000000000009859, 0.4000000000000001887 ) ) ;
#118 = PERSON_AND_ORGANIZATION ( #178, #85 ) ;
#119 = DIRECTION ( 'NONE',  ( -3.491481338843133355E-15, 1.224646799147353207E-16, -1.000000000000000000 ) ) ;
#120 = ORIENTED_EDGE ( 'NONE', *, *, #22, .T. ) ;
#121 = FACE_OUTER_BOUND ( 'NONE', #60, .T. ) ;
#122 = UNCERTAINTY_MEASURE_WITH_UNIT (LENGTH_MEASURE( 1.000000000000000082E-05 ), #20, 'distance_accuracy_value', 'NONE');
#123 = CARTESIAN_POINT ( 'NONE',  ( 2.793185071074506684E-13, 1.199807826129472128E-32, 80.00000000000000000 ) ) ;
#124 = DIRECTION ( 'NONE',  ( 4.275831445896959482E-31, 1.000000000000000000, 1.224646799147353207E-16 ) ) ;
#125 = AXIS2_PLACEMENT_3D ( 'NONE', #166, #228, #80 ) ;
#126 = EDGE_LOOP ( 'NONE', ( #76 ) ) ;
#127 = ORIENTED_EDGE ( 'NONE', *, *, #205, .T. ) ;
#128 = AXIS2_PLACEMENT_3D ( 'NONE', #155, #110, #70 ) ;
#129 = DIRECTION ( 'NONE',  ( -3.491481338843133355E-15, 1.224646799147353207E-16, -1.000000000000000000 ) ) ;
#130 = CC_DESIGN_DATE_AND_TIME_ASSIGNMENT ( #161, #103, ( #149 ) ) ;
#131 = PLANE ( 'NONE',  #128 ) ;
#132 = PRODUCT_DEFINITION ( 'UNKNOWN', '', #165, #114 ) ;
#133 = CARTESIAN_POINT ( 'NONE',  ( 2.793185071074506684E-13, -9.797174393178826052E-15, 80.00000000000000000 ) ) ;
#134 = AXIS2_PLACEMENT_3D ( 'NONE', #133, #208, #19 ) ;
#135 = SHAPE_DEFINITION_REPRESENTATION ( #213, #158 ) ;
#136 = ADVANCED_FACE ( 'NONE', ( #206 ), #145, .F. ) ;
#137 = PERSON_AND_ORGANIZATION ( #178, #85 ) ;
#138 = PERSON_AND_ORGANIZATION ( #178, #85 ) ;
#139 = APPROVAL ( #50, 'UNSPECIFIED' ) ;
#140 = AXIS2_PLACEMENT_3D ( 'NONE', #24, #230, #124 ) ;
#141 = AXIS2_PLACEMENT_3D ( 'NONE', #200, #36, #242 ) ;
#142 = CALENDAR_DATE ( 2021, 2, 12 ) ;
#143 = ADVANCED_FACE ( 'NONE', ( #32 ), #15, .T. ) ;
#144 = ADVANCED_FACE ( 'NONE', ( #46, #102 ), #237, .T. ) ;
#145 = PLANE ( 'NONE',  #35 ) ;
#146 = DIRECTION ( 'NONE',  ( -4.275831445896958607E-31, -1.000000000000000000, -1.224646799147353207E-16 ) ) ;
#147 = DIRECTION ( 'NONE',  ( 4.275831445896958607E-31, 1.000000000000000000, 1.224646799147353207E-16 ) ) ;
#148 = DIRECTION ( 'NONE',  ( 4.327932459297140041E-31, 1.000000000000000000, 1.218204688185954640E-16 ) ) ;
#149 = SECURITY_CLASSIFICATION ( '', '', #98 ) ;
#150 = CARTESIAN_POINT ( 'NONE',  ( -7.803392388761987248E-31, 2.737061603357902998E-32, -2.234980408443930062E-16 ) ) ;
#151 = EDGE_LOOP ( 'NONE', ( #120 ) ) ;
#152 = APPROVAL_PERSON_ORGANIZATION ( #138, #58, #82 ) ;
#153 = VERTEX_POINT ( 'NONE', #23 ) ;
#154 = EDGE_CURVE ( 'NONE', #153, #153, #33, .T. ) ;
#155 = CARTESIAN_POINT ( 'NONE',  ( 4.189777606611760026E-14, 1.668482758211322199E-32, 12.00000000000000000 ) ) ;
#156 = DIRECTION ( 'NONE',  ( 3.491481338843133355E-15, -1.224646799147353207E-16, 1.000000000000000000 ) ) ;
#157 = PERSON_AND_ORGANIZATION ( #178, #85 ) ;
#158 = ADVANCED_BREP_SHAPE_REPRESENTATION ( '321671', ( #207, #47, #190 ), #78 ) ;
#159 = COORDINATED_UNIVERSAL_TIME_OFFSET ( 1, 0, .AHEAD. ) ;
#160 = PERSON_AND_ORGANIZATION ( #178, #85 ) ;
#161 = DATE_AND_TIME ( #232, #216 ) ;
#162 = AXIS2_PLACEMENT_3D ( 'NONE', #59, #173, #39 ) ;
#163 = ADVANCED_FACE ( 'NONE', ( #96, #41 ), #171, .T. ) ;
#164 = EDGE_LOOP ( 'NONE', ( #106 ) ) ;
#165 = PRODUCT_DEFINITION_FORMATION_WITH_SPECIFIED_SOURCE ( 'ANY', '', #181, .NOT_KNOWN. ) ;
#166 = CARTESIAN_POINT ( 'NONE',  ( 4.325844625744255925E-14, -1.517302044719448374E-15, 12.38971143170302724 ) ) ;
#167 = CARTESIAN_POINT ( 'NONE',  ( 2.793185071074506684E-13, -9.797174393178826052E-15, 80.00000000000000000 ) ) ;
#168 = CARTESIAN_POINT ( 'NONE',  ( -3.901696194380993624E-31, 1.368530801678951499E-32, -1.117490204221965031E-16 ) ) ;
#169 = ORIENTED_EDGE ( 'NONE', *, *, #75, .T. ) ;
#170 = VERTEX_POINT ( 'NONE', #54 ) ;
#171 = CONICAL_SURFACE ( 'NONE', #134, 1.600000000000000977, 0.7853981633974512766 ) ;
#172 = ORIENTED_EDGE ( 'NONE', *, *, #154, .F. ) ;
#173 = DIRECTION ( 'NONE',  ( -3.491481338843133355E-15, 1.224646799147353207E-16, -1.000000000000000000 ) ) ;
#174 = COORDINATED_UNIVERSAL_TIME_OFFSET ( 1, 0, .AHEAD. ) ;
#175 = COORDINATED_UNIVERSAL_TIME_OFFSET ( 1, 0, .AHEAD. ) ;
#176 = AXIS2_PLACEMENT_3D ( 'NONE', #62, #129, #188 ) ;
#177 = PERSON_AND_ORGANIZATION ( #178, #85 ) ;
#178 = PERSON ( 'UNSPECIFIED', 'UNSPECIFIED', 'UNSPECIFIED', ('UNSPECIFIED'), ('UNSPECIFIED'), ('UNSPECIFIED') ) ;
#179 = PERSON_AND_ORGANIZATION_ROLE ( 'design_owner' ) ;
#180 = CC_DESIGN_PERSON_AND_ORGANIZATION_ASSIGNMENT ( #65, #179, ( #181 ) ) ;
#181 = PRODUCT ( '321671', '321671', '', ( #25 ) ) ;
#182 = CC_DESIGN_SECURITY_CLASSIFICATION ( #149, ( #165 ) ) ;
#183 = CIRCLE ( 'NONE', #125, 1.999999999999991784 ) ;
#184 = CIRCLE ( 'NONE', #79, 1.600000000000000977 ) ;
#185 = DIRECTION ( 'NONE',  ( -4.275831445896959482E-31, -1.000000000000000000, -1.224646799147353207E-16 ) ) ;
#186 = EDGE_CURVE ( 'NONE', #191, #191, #104, .T. ) ;
#187 = DIRECTION ( 'NONE',  ( 4.275831445896958607E-31, 1.000000000000000000, 1.224646799147353207E-16 ) ) ;
#188 = DIRECTION ( 'NONE',  ( 0.0000000000000000000, 1.000000000000000000, 0.0000000000000000000 ) ) ;
#189 = VERTEX_POINT ( 'NONE', #192 ) ;
#190 = AXIS2_PLACEMENT_3D ( 'NONE', #42, #113, #194 ) ;
#191 = VERTEX_POINT ( 'NONE', #61 ) ;
#192 = CARTESIAN_POINT ( 'NONE',  ( 2.779219145719134403E-13, 1.999999999999991340, 79.60000000000000853 ) ) ;
#193 = APPROVAL_STATUS ( 'not_yet_approved' ) ;
#194 = DIRECTION ( 'NONE',  ( 1.000000000000000000, 0.0000000000000000000, 0.0000000000000000000 ) ) ;
#195 = CIRCLE ( 'NONE', #141, 2.225000000000009859 ) ;
#196 = APPROVAL_DATE_TIME ( #48, #139 ) ;
#197 = CC_DESIGN_DATE_AND_TIME_ASSIGNMENT ( #45, #99, ( #132 ) ) ;
#198 = DIRECTION ( 'NONE',  ( 4.275831445896958607E-31, 1.000000000000000000, 1.224646799147353207E-16 ) ) ;
#199 = EDGE_LOOP ( 'NONE', ( #226 ) ) ;
#200 = CARTESIAN_POINT ( 'NONE',  ( 4.189777606611760026E-14, -1.469576158976823947E-15, 12.00000000000000000 ) ) ;
#201 = DIRECTION ( 'NONE',  ( -3.491481338843133355E-15, 1.224646799147353207E-16, -1.000000000000000000 ) ) ;
#202 = FACE_OUTER_BOUND ( 'NONE', #164, .T. ) ;
#203 = AXIS2_PLACEMENT_3D ( 'NONE', #168, #119, #198 ) ;
#204 = DIRECTION ( 'NONE',  ( -3.491481338843133355E-15, 1.224646799147353207E-16, -1.000000000000000000 ) ) ;
#205 = EDGE_CURVE ( 'NONE', #210, #210, #183, .T. ) ;
#206 = FACE_OUTER_BOUND ( 'NONE', #13, .T. ) ;
#207 = MANIFOLD_SOLID_BREP ( 'Corps-Déplacer/Copier1[1]', #95 ) ;
#208 = DIRECTION ( 'NONE',  ( -3.491481338843133355E-15, 1.224646799147353207E-16, -1.000000000000000000 ) ) ;
#209 = EDGE_LOOP ( 'NONE', ( #73 ) ) ;
#210 = VERTEX_POINT ( 'NONE', #4 ) ;
#211 = CIRCLE ( 'NONE', #56, 2.225000000000009859 ) ;
#212 = FACE_OUTER_BOUND ( 'NONE', #109, .T. ) ;
#213 = PRODUCT_DEFINITION_SHAPE ( 'NONE', 'NONE',  #132 ) ;
#214 = PERSON_AND_ORGANIZATION_ROLE ( 'creator' ) ;
#215 = CALENDAR_DATE ( 2021, 2, 12 ) ;
#216 = LOCAL_TIME ( 13, 56, 18.00000000000000000, #175 ) ;
#217 = AXIS2_PLACEMENT_3D ( 'NONE', #55, #31, #53 ) ;
#218 = PERSON_AND_ORGANIZATION_ROLE ( 'creator' ) ;
#219 = DIRECTION ( 'NONE',  ( -3.491481338843133355E-15, 1.224646799147353207E-16, -1.000000000000000000 ) ) ;
#220 = DIRECTION ( 'NONE',  ( 0.0000000000000000000, 1.000000000000000000, 0.0000000000000000000 ) ) ;
#221 = CARTESIAN_POINT ( 'NONE',  ( 0.0000000000000000000, 0.0000000000000000000, 0.0000000000000000000 ) ) ;
#222 =( NAMED_UNIT ( * ) PLANE_ANGLE_UNIT ( ) SI_UNIT ( $, .RADIAN. ) );
#223 = ORIENTED_EDGE ( 'NONE', *, *, #22, .F. ) ;
#224 = ADVANCED_FACE ( 'NONE', ( #202 ), #6, .T. ) ;
#225 = FACE_OUTER_BOUND ( 'NONE', #199, .T. ) ;
#226 = ORIENTED_EDGE ( 'NONE', *, *, #231, .T. ) ;
#227 = AXIS2_PLACEMENT_3D ( 'NONE', #150, #57, #185 ) ;
#228 = DIRECTION ( 'NONE',  ( -3.491481338843133355E-15, 1.224646799147353207E-16, -1.000000000000000000 ) ) ;
#229 =( NAMED_UNIT ( * ) SI_UNIT ( $, .STERADIAN. ) SOLID_ANGLE_UNIT ( ) );
#230 = DIRECTION ( 'NONE',  ( -3.491481338843133355E-15, 1.224646799147353207E-16, -1.000000000000000000 ) ) ;
#231 = EDGE_CURVE ( 'NONE', #112, #112, #211, .T. ) ;
#232 = CALENDAR_DATE ( 2021, 2, 12 ) ;
#233 = DATE_AND_TIME ( #12, #87 ) ;
#234 = PERSON_AND_ORGANIZATION ( #178, #85 ) ;
#235 = CALENDAR_DATE ( 2021, 2, 12 ) ;
#236 = LOCAL_TIME ( 13, 56, 18.00000000000000000, #174 ) ;
#237 = CONICAL_SURFACE ( 'NONE', #176, 2.225000000000009859, 0.5235987755983012581 ) ;
#238 = CIRCLE ( 'NONE', #217, 2.000000000000000888 ) ;
#239 = EDGE_LOOP ( 'NONE', ( #14 ) ) ;
#240 = ADVANCED_FACE ( 'NONE', ( #212 ), #131, .F. ) ;
#241 = FACE_OUTER_BOUND ( 'NONE', #93, .T. ) ;
#242 = DIRECTION ( 'NONE',  ( 0.0000000000000000000, 1.000000000000000000, 0.0000000000000000000 ) ) ;
#243 = CC_DESIGN_APPROVAL ( #58, ( #132 ) ) ;
ENDSEC;
END-ISO-10303-21;
