ISO-10303-21;
HEADER;
FILE_DESCRIPTION (( 'STEP AP203' ),
    '1' );
FILE_NAME ('321670.step',
    '2021-12-02T12:56:18',
    ( '' ),
    ( '' ),
    'SwSTEP 2.0',
    'SolidWorks 2019',
    '' );
FILE_SCHEMA (( 'CONFIG_CONTROL_DESIGN' ));
ENDSEC;

DATA;
#1 = VERTEX_POINT ( 'NONE', #37 ) ;
#2 = CARTESIAN_POINT ( 'NONE',  ( 4.322820914207978421E-14, 1.999999999999990452, 12.38105117766518326 ) ) ;
#3 = AXIS2_PLACEMENT_3D ( 'NONE', #8, #163, #181 ) ;
#4 = EDGE_LOOP ( 'NONE', ( #115 ) ) ;
#5 = ORIENTED_EDGE ( 'NONE', *, *, #140, .F. ) ;
#6 = DIRECTION ( 'NONE',  ( 0.0000000000000000000, 1.000000000000000000, 0.0000000000000000000 ) ) ;
#7 = DIRECTION ( 'NONE',  ( 0.0000000000000000000, 1.000000000000000000, 0.0000000000000000000 ) ) ;
#8 = CARTESIAN_POINT ( 'NONE',  ( 4.189777606611760026E-14, -1.469576158976823947E-15, 12.00000000000000000 ) ) ;
#9 = APPROVAL_PERSON_ORGANIZATION ( #210, #243, #74 ) ;
#10 = CC_DESIGN_PERSON_AND_ORGANIZATION_ASSIGNMENT ( #113, #174, ( #176 ) ) ;
#11 = FACE_BOUND ( 'NONE', #172, .T. ) ;
#12 = DIRECTION ( 'NONE',  ( 4.275831445896957731E-31, 1.000000000000000000, 1.224646799147353207E-16 ) ) ;
#13 = PRODUCT_DEFINITION ( 'UNKNOWN', '', #176, #133 ) ;
#14 = DATE_AND_TIME ( #35, #187 ) ;
#15 = AXIS2_PLACEMENT_3D ( 'NONE', #144, #223, #183 ) ;
#16 = APPROVAL_ROLE ( '' ) ;
#17 = CARTESIAN_POINT ( 'NONE',  ( 4.189777606611760026E-14, 2.220000000000009077, 12.00000000000000000 ) ) ;
#18 = CC_DESIGN_PERSON_AND_ORGANIZATION_ASSIGNMENT ( #146, #224, ( #13 ) ) ;
#19 = ORGANIZATION ( 'UNSPECIFIED', 'UNSPECIFIED', '' ) ;
#20 = PRODUCT_DEFINITION_SHAPE ( 'NONE', 'NONE',  #13 ) ;
#21 = COORDINATED_UNIVERSAL_TIME_OFFSET ( 1, 0, .AHEAD. ) ;
#22 = ORIENTED_EDGE ( 'NONE', *, *, #164, .T. ) ;
#23 = CC_DESIGN_DATE_AND_TIME_ASSIGNMENT ( #135, #212, ( #84 ) ) ;
#24 = CONICAL_SURFACE ( 'NONE', #56, 1.600000000000000977, 0.7853981633974512766 ) ;
#25 = PLANE ( 'NONE',  #134 ) ;
#26 = APPROVAL ( #107, 'UNSPECIFIED' ) ;
#27 = ORIENTED_EDGE ( 'NONE', *, *, #145, .T. ) ;
#28 = CLOSED_SHELL ( 'NONE', ( #103, #59, #123, #188 ) ) ;
#29 = CYLINDRICAL_SURFACE ( 'NONE', #230, 1.999999999999996669 ) ;
#30 = CC_DESIGN_APPROVAL ( #111, ( #13 ) ) ;
#31 = DIRECTION ( 'NONE',  ( 4.275831445896958607E-31, 1.000000000000000000, 1.224646799147353207E-16 ) ) ;
#32 = DIRECTION ( 'NONE',  ( -3.491481338843133355E-15, 1.224646799147353207E-16, -1.000000000000000000 ) ) ;
#33 = DIRECTION ( 'NONE',  ( 3.491481338843133355E-15, -1.224646799147353207E-16, 1.000000000000000000 ) ) ;
#34 = DIRECTION ( 'NONE',  ( -3.491481338843133355E-15, 1.224646799147353207E-16, -1.000000000000000000 ) ) ;
#35 = CALENDAR_DATE ( 2021, 2, 12 ) ;
#36 = PERSON_AND_ORGANIZATION ( #150, #19 ) ;
#37 = CARTESIAN_POINT ( 'NONE',  ( 4.189777606611760026E-14, 2.220000000000009077, 12.00000000000000000 ) ) ;
#38 = AXIS2_PLACEMENT_3D ( 'NONE', #137, #32, #12 ) ;
#39 = ORIENTED_EDGE ( 'NONE', *, *, #82, .T. ) ;
#40 = CC_DESIGN_DATE_AND_TIME_ASSIGNMENT ( #124, #203, ( #13 ) ) ;
#41 = EDGE_LOOP ( 'NONE', ( #77 ) ) ;
#42 = EDGE_LOOP ( 'NONE', ( #97 ) ) ;
#43 = DIRECTION ( 'NONE',  ( 4.275831445896958607E-31, 1.000000000000000000, 1.224646799147353207E-16 ) ) ;
#44 = AXIS2_PLACEMENT_3D ( 'NONE', #106, #206, #125 ) ;
#45 = FACE_BOUND ( 'NONE', #154, .T. ) ;
#46 = FACE_OUTER_BOUND ( 'NONE', #75, .T. ) ;
#47 = CARTESIAN_POINT ( 'NONE',  ( 4.189777606611760026E-14, 1.664733358754667528E-32, 12.00000000000000000 ) ) ;
#48 = CARTESIAN_POINT ( 'NONE',  ( 0.0000000000000000000, 0.0000000000000000000, 0.0000000000000000000 ) ) ;
#49 =( GEOMETRIC_REPRESENTATION_CONTEXT ( 3 ) GLOBAL_UNCERTAINTY_ASSIGNED_CONTEXT ( ( #116 ) ) GLOBAL_UNIT_ASSIGNED_CONTEXT ( ( #127, #73, #54 ) ) REPRESENTATION_CONTEXT ( 'NONE', 'WORKASPACE' ) );
#50 = CC_DESIGN_PERSON_AND_ORGANIZATION_ASSIGNMENT ( #175, #232, ( #84 ) ) ;
#51 = APPLICATION_PROTOCOL_DEFINITION ( 'international standard', 'config_control_design', 1994, #195 ) ;
#52 = CALENDAR_DATE ( 2021, 2, 12 ) ;
#53 = PERSON_AND_ORGANIZATION ( #150, #19 ) ;
#54 =( NAMED_UNIT ( * ) SI_UNIT ( $, .STERADIAN. ) SOLID_ANGLE_UNIT ( ) );
#55 = PERSON_AND_ORGANIZATION ( #150, #19 ) ;
#56 = AXIS2_PLACEMENT_3D ( 'NONE', #120, #34, #85 ) ;
#57 = CALENDAR_DATE ( 2021, 2, 12 ) ;
#58 = ORIENTED_EDGE ( 'NONE', *, *, #82, .F. ) ;
#59 = ADVANCED_FACE ( 'NONE', ( #191 ), #25, .T. ) ;
#60 = COORDINATED_UNIVERSAL_TIME_OFFSET ( 1, 0, .AHEAD. ) ;
#61 = APPROVAL_DATE_TIME ( #171, #243 ) ;
#62 = EDGE_LOOP ( 'NONE', ( #58 ) ) ;
#63 = PLANE ( 'NONE',  #98 ) ;
#64 = CONICAL_SURFACE ( 'NONE', #44, 2.220000000000009965, 0.5235987755983007030 ) ;
#65 = DIRECTION ( 'NONE',  ( 0.0000000000000000000, 1.000000000000000000, 0.0000000000000000000 ) ) ;
#66 = DIRECTION ( 'NONE',  ( 4.337680054926187545E-31, 1.000000000000000000, 1.220948392438625678E-16 ) ) ;
#67 = EDGE_CURVE ( 'NONE', #91, #91, #227, .T. ) ;
#68 = DIRECTION ( 'NONE',  ( -3.491481338843133355E-15, 1.224646799147353207E-16, -1.000000000000000000 ) ) ;
#69 = CYLINDRICAL_SURFACE ( 'NONE', #143, 2.220000000000009965 ) ;
#70 = CALENDAR_DATE ( 2021, 2, 12 ) ;
#71 = VERTEX_POINT ( 'NONE', #148 ) ;
#72 = APPROVAL_PERSON_ORGANIZATION ( #55, #111, #186 ) ;
#73 =( NAMED_UNIT ( * ) PLANE_ANGLE_UNIT ( ) SI_UNIT ( $, .RADIAN. ) );
#74 = APPROVAL_ROLE ( '' ) ;
#75 = EDGE_LOOP ( 'NONE', ( #211 ) ) ;
#76 = CC_DESIGN_APPROVAL ( #243, ( #84 ) ) ;
#77 = ORIENTED_EDGE ( 'NONE', *, *, #67, .T. ) ;
#78 = EDGE_CURVE ( 'NONE', #90, #90, #167, .T. ) ;
#79 = EDGE_LOOP ( 'NONE', ( #194 ) ) ;
#80 = CIRCLE ( 'NONE', #117, 2.220000000000009965 ) ;
#81 = DIRECTION ( 'NONE',  ( -3.491481338843133355E-15, 1.224646799147353207E-16, -1.000000000000000000 ) ) ;
#82 = EDGE_CURVE ( 'NONE', #122, #122, #138, .T. ) ;
#83 = FACE_OUTER_BOUND ( 'NONE', #151, .T. ) ;
#84 = SECURITY_CLASSIFICATION ( '', '', #193 ) ;
#85 = DIRECTION ( 'NONE',  ( 0.0000000000000000000, 1.000000000000000000, 0.0000000000000000000 ) ) ;
#86 = DIRECTION ( 'NONE',  ( -3.491481338843133355E-15, 1.224646799147353207E-16, -1.000000000000000000 ) ) ;
#87 = FACE_OUTER_BOUND ( 'NONE', #214, .T. ) ;
#88 = CARTESIAN_POINT ( 'NONE',  ( 2.779219145719134403E-13, 1.999999999999991340, 79.60000000000000853 ) ) ;
#89 = AXIS2_PLACEMENT_3D ( 'NONE', #200, #33, #104 ) ;
#90 = VERTEX_POINT ( 'NONE', #169 ) ;
#91 = VERTEX_POINT ( 'NONE', #88 ) ;
#92 = AXIS2_PLACEMENT_3D ( 'NONE', #219, #240, #221 ) ;
#93 = VERTEX_POINT ( 'NONE', #2 ) ;
#94 = PERSON_AND_ORGANIZATION_ROLE ( 'creator' ) ;
#95 = EDGE_LOOP ( 'NONE', ( #209 ) ) ;
#96 = COORDINATED_UNIVERSAL_TIME_OFFSET ( 1, 0, .AHEAD. ) ;
#97 = ORIENTED_EDGE ( 'NONE', *, *, #140, .T. ) ;
#98 = AXIS2_PLACEMENT_3D ( 'NONE', #101, #182, #220 ) ;
#99 = ADVANCED_FACE ( 'NONE', ( #217 ), #118, .F. ) ;
#100 = DIRECTION ( 'NONE',  ( -4.275831445896958607E-31, -1.000000000000000000, -1.224646799147353207E-16 ) ) ;
#101 = CARTESIAN_POINT ( 'NONE',  ( 4.189777606611760026E-14, 1.664733358754667528E-32, 12.00000000000000000 ) ) ;
#102 = DIRECTION ( 'NONE',  ( 4.275831445896958607E-31, 1.000000000000000000, 1.224646799147353207E-16 ) ) ;
#103 = ADVANCED_FACE ( 'NONE', ( #196, #202 ), #69, .T. ) ;
#104 = DIRECTION ( 'NONE',  ( -4.275831445896957731E-31, -1.000000000000000000, -1.224646799147353207E-16 ) ) ;
#105 = DIRECTION ( 'NONE',  ( -3.491481338843133355E-15, 1.224646799147353207E-16, -1.000000000000000000 ) ) ;
#106 = CARTESIAN_POINT ( 'NONE',  ( 4.189777606611760026E-14, -1.469576158976823947E-15, 12.00000000000000000 ) ) ;
#107 = APPROVAL_STATUS ( 'not_yet_approved' ) ;
#108 = CLOSED_SHELL ( 'NONE', ( #179, #238, #160, #132, #99 ) ) ;
#109 = COORDINATED_UNIVERSAL_TIME_OFFSET ( 1, 0, .AHEAD. ) ;
#110 = PERSON_AND_ORGANIZATION_ROLE ( 'design_owner' ) ;
#111 = APPROVAL ( #129, 'UNSPECIFIED' ) ;
#112 = PRODUCT ( '321670', '321670', '', ( #168 ) ) ;
#113 = PERSON_AND_ORGANIZATION ( #150, #19 ) ;
#114 = PERSON_AND_ORGANIZATION ( #150, #19 ) ;
#115 = ORIENTED_EDGE ( 'NONE', *, *, #164, .F. ) ;
#116 = UNCERTAINTY_MEASURE_WITH_UNIT (LENGTH_MEASURE( 1.000000000000000082E-05 ), #127, 'distance_accuracy_value', 'NONE');
#117 = AXIS2_PLACEMENT_3D ( 'NONE', #162, #235, #66 ) ;
#118 = PLANE ( 'NONE',  #166 ) ;
#119 = CARTESIAN_POINT ( 'NONE',  ( 0.0000000000000000000, 0.0000000000000000000, 0.0000000000000000000 ) ) ;
#120 = CARTESIAN_POINT ( 'NONE',  ( 2.793185071074506684E-13, -9.797174393178826052E-15, 80.00000000000000000 ) ) ;
#121 = DIRECTION ( 'NONE',  ( -3.491481338843133355E-15, 1.224646799147353207E-16, -1.000000000000000000 ) ) ;
#122 = VERTEX_POINT ( 'NONE', #185 ) ;
#123 = ADVANCED_FACE ( 'NONE', ( #239 ), #157, .T. ) ;
#124 = DATE_AND_TIME ( #52, #192 ) ;
#125 = DIRECTION ( 'NONE',  ( 0.0000000000000000000, 1.000000000000000000, 0.0000000000000000000 ) ) ;
#126 = LOCAL_TIME ( 13, 56, 18.00000000000000000, #109 ) ;
#127 =( LENGTH_UNIT ( ) NAMED_UNIT ( * ) SI_UNIT ( .MILLI., .METRE. ) );
#128 = EDGE_CURVE ( 'NONE', #170, #170, #237, .T. ) ;
#129 = APPROVAL_STATUS ( 'not_yet_approved' ) ;
#130 = CC_DESIGN_APPROVAL ( #26, ( #176 ) ) ;
#131 = ORIENTED_EDGE ( 'NONE', *, *, #78, .T. ) ;
#132 = ADVANCED_FACE ( 'NONE', ( #46, #45 ), #24, .T. ) ;
#133 = DESIGN_CONTEXT ( 'detailed design', #195, 'design' ) ;
#134 = AXIS2_PLACEMENT_3D ( 'NONE', #47, #215, #100 ) ;
#135 = DATE_AND_TIME ( #207, #152 ) ;
#136 = EDGE_LOOP ( 'NONE', ( #234 ) ) ;
#137 = CARTESIAN_POINT ( 'NONE',  ( -7.782013231532501658E-31, 2.729562804444594202E-32, -2.228857174448193679E-16 ) ) ;
#138 = CIRCLE ( 'NONE', #38, 1.820000000000008944 ) ;
#139 = FACE_OUTER_BOUND ( 'NONE', #136, .T. ) ;
#140 = EDGE_CURVE ( 'NONE', #1, #1, #201, .T. ) ;
#141 = FACE_OUTER_BOUND ( 'NONE', #42, .T. ) ;
#142 = DIRECTION ( 'NONE',  ( 4.275831445896958607E-31, 1.000000000000000000, 1.224646799147353207E-16 ) ) ;
#143 = AXIS2_PLACEMENT_3D ( 'NONE', #119, #86, #142 ) ;
#144 = CARTESIAN_POINT ( 'NONE',  ( 0.0000000000000000000, 0.0000000000000000000, 0.0000000000000000000 ) ) ;
#145 = EDGE_CURVE ( 'NONE', #93, #93, #213, .T. ) ;
#146 = PERSON_AND_ORGANIZATION ( #150, #19 ) ;
#147 = DATE_AND_TIME ( #70, #126 ) ;
#148 = CARTESIAN_POINT ( 'NONE',  ( 1.396592535537253737E-15, 2.220000000000009965, 0.4000000000000000777 ) ) ;
#149 = CC_DESIGN_SECURITY_CLASSIFICATION ( #84, ( #176 ) ) ;
#150 = PERSON ( 'UNSPECIFIED', 'UNSPECIFIED', 'UNSPECIFIED', ('UNSPECIFIED'), ('UNSPECIFIED'), ('UNSPECIFIED') ) ;
#151 = EDGE_LOOP ( 'NONE', ( #22 ) ) ;
#152 = LOCAL_TIME ( 13, 56, 18.00000000000000000, #96 ) ;
#153 = MANIFOLD_SOLID_BREP ( 'Corps-Déplacer/Copier1[2]', #28 ) ;
#154 = EDGE_LOOP ( 'NONE', ( #131 ) ) ;
#155 = AXIS2_PLACEMENT_3D ( 'NONE', #236, #199, #6 ) ;
#156 = MANIFOLD_SOLID_BREP ( 'Corps-Déplacer/Copier1[1]', #108 ) ;
#157 = PLANE ( 'NONE',  #208 ) ;
#158 = APPLICATION_CONTEXT ( 'configuration controlled 3d designs of mechanical parts and assemblies' ) ;
#159 = FACE_BOUND ( 'NONE', #62, .T. ) ;
#160 = ADVANCED_FACE ( 'NONE', ( #139, #241 ), #29, .T. ) ;
#161 = CONICAL_SURFACE ( 'NONE', #89, 1.820000000000008944, 0.7853981633974498333 ) ;
#162 = CARTESIAN_POINT ( 'NONE',  ( 1.396592535537252750E-15, -4.898587196589410610E-17, 0.3999999999999998002 ) ) ;
#163 = DIRECTION ( 'NONE',  ( -3.491481338843133355E-15, 1.224646799147353207E-16, -1.000000000000000000 ) ) ;
#164 = EDGE_CURVE ( 'NONE', #71, #71, #80, .T. ) ;
#165 = CARTESIAN_POINT ( 'NONE',  ( 2.793185071074506684E-13, 1.199807826129472128E-32, 80.00000000000000000 ) ) ;
#166 = AXIS2_PLACEMENT_3D ( 'NONE', #165, #68, #43 ) ;
#167 = CIRCLE ( 'NONE', #218, 1.600000000000000977 ) ;
#168 = MECHANICAL_CONTEXT ( 'NONE', #158, 'mechanical' ) ;
#169 = CARTESIAN_POINT ( 'NONE',  ( 2.793185071074506684E-13, 1.599999999999991207, 80.00000000000000000 ) ) ;
#170 = VERTEX_POINT ( 'NONE', #17 ) ;
#171 = DATE_AND_TIME ( #57, #184 ) ;
#172 = EDGE_LOOP ( 'NONE', ( #27 ) ) ;
#173 = APPROVAL_PERSON_ORGANIZATION ( #36, #26, #16 ) ;
#174 = PERSON_AND_ORGANIZATION_ROLE ( 'design_supplier' ) ;
#175 = PERSON_AND_ORGANIZATION ( #150, #19 ) ;
#176 = PRODUCT_DEFINITION_FORMATION_WITH_SPECIFIED_SOURCE ( 'ANY', '', #112, .NOT_KNOWN. ) ;
#177 = CARTESIAN_POINT ( 'NONE',  ( 2.793185071074506684E-13, -9.797174393178826052E-15, 80.00000000000000000 ) ) ;
#178 = DIRECTION ( 'NONE',  ( -3.491481338843133355E-15, 1.224646799147353207E-16, -1.000000000000000000 ) ) ;
#179 = ADVANCED_FACE ( 'NONE', ( #141 ), #63, .F. ) ;
#180 = CARTESIAN_POINT ( 'NONE',  ( 4.189777606611760026E-14, -1.469576158976823947E-15, 12.00000000000000000 ) ) ;
#181 = DIRECTION ( 'NONE',  ( 0.0000000000000000000, 1.000000000000000000, 0.0000000000000000000 ) ) ;
#182 = DIRECTION ( 'NONE',  ( 3.491481338843133355E-15, -1.224646799147353207E-16, 1.000000000000000000 ) ) ;
#183 = DIRECTION ( 'NONE',  ( 1.000000000000000000, 0.0000000000000000000, 0.0000000000000000000 ) ) ;
#184 = LOCAL_TIME ( 13, 56, 18.00000000000000000, #60 ) ;
#185 = CARTESIAN_POINT ( 'NONE',  ( 0.0000000000000000000, 1.820000000000008944, 0.0000000000000000000 ) ) ;
#186 = APPROVAL_ROLE ( '' ) ;
#187 = LOCAL_TIME ( 13, 56, 18.00000000000000000, #21 ) ;
#188 = ADVANCED_FACE ( 'NONE', ( #83, #159 ), #161, .T. ) ;
#189 = ORIENTED_EDGE ( 'NONE', *, *, #128, .F. ) ;
#190 = EDGE_LOOP ( 'NONE', ( #189 ) ) ;
#191 = FACE_OUTER_BOUND ( 'NONE', #190, .T. ) ;
#192 = LOCAL_TIME ( 13, 56, 18.00000000000000000, #226 ) ;
#193 = SECURITY_CLASSIFICATION_LEVEL ( 'unclassified' ) ;
#194 = ORIENTED_EDGE ( 'NONE', *, *, #128, .T. ) ;
#195 = APPLICATION_CONTEXT ( 'configuration controlled 3d designs of mechanical parts and assemblies' ) ;
#196 = FACE_OUTER_BOUND ( 'NONE', #79, .T. ) ;
#197 = AXIS2_PLACEMENT_3D ( 'NONE', #180, #81, #65 ) ;
#198 = CARTESIAN_POINT ( 'NONE',  ( -3.891006615766250829E-31, 1.364781402222297101E-32, -1.114428587224096839E-16 ) ) ;
#199 = DIRECTION ( 'NONE',  ( -3.491481338843133355E-15, 1.224646799147353207E-16, -1.000000000000000000 ) ) ;
#200 = CARTESIAN_POINT ( 'NONE',  ( -7.782013231532501658E-31, 2.729562804444594202E-32, -2.228857174448193679E-16 ) ) ;
#201 = CIRCLE ( 'NONE', #197, 2.220000000000009965 ) ;
#202 = FACE_OUTER_BOUND ( 'NONE', #4, .T. ) ;
#203 = DATE_TIME_ROLE ( 'creation_date' ) ;
#204 = APPROVAL_DATE_TIME ( #147, #26 ) ;
#205 = APPLICATION_PROTOCOL_DEFINITION ( 'international standard', 'config_control_design', 1994, #158 ) ;
#206 = DIRECTION ( 'NONE',  ( -3.491481338843133355E-15, 1.224646799147353207E-16, -1.000000000000000000 ) ) ;
#207 = CALENDAR_DATE ( 2021, 2, 12 ) ;
#208 = AXIS2_PLACEMENT_3D ( 'NONE', #198, #121, #102 ) ;
#209 = ORIENTED_EDGE ( 'NONE', *, *, #78, .F. ) ;
#210 = PERSON_AND_ORGANIZATION ( #150, #19 ) ;
#211 = ORIENTED_EDGE ( 'NONE', *, *, #67, .F. ) ;
#212 = DATE_TIME_ROLE ( 'classification_date' ) ;
#213 = CIRCLE ( 'NONE', #92, 1.999999999999991784 ) ;
#214 = EDGE_LOOP ( 'NONE', ( #5 ) ) ;
#215 = DIRECTION ( 'NONE',  ( 3.491481338843133355E-15, -1.224646799147353207E-16, 1.000000000000000000 ) ) ;
#216 = CC_DESIGN_PERSON_AND_ORGANIZATION_ASSIGNMENT ( #114, #94, ( #176 ) ) ;
#217 = FACE_OUTER_BOUND ( 'NONE', #95, .T. ) ;
#218 = AXIS2_PLACEMENT_3D ( 'NONE', #177, #178, #7 ) ;
#219 = CARTESIAN_POINT ( 'NONE',  ( 4.322820914207978421E-14, -1.516241469480723527E-15, 12.38105117766518326 ) ) ;
#220 = DIRECTION ( 'NONE',  ( -4.275831445896958607E-31, -1.000000000000000000, -1.224646799147353207E-16 ) ) ;
#221 = DIRECTION ( 'NONE',  ( 0.0000000000000000000, 1.000000000000000000, 0.0000000000000000000 ) ) ;
#222 = ADVANCED_BREP_SHAPE_REPRESENTATION ( '321670', ( #156, #153, #15 ), #49 ) ;
#223 = DIRECTION ( 'NONE',  ( 0.0000000000000000000, 0.0000000000000000000, 1.000000000000000000 ) ) ;
#224 = PERSON_AND_ORGANIZATION_ROLE ( 'creator' ) ;
#225 = CC_DESIGN_PERSON_AND_ORGANIZATION_ASSIGNMENT ( #53, #110, ( #112 ) ) ;
#226 = COORDINATED_UNIVERSAL_TIME_OFFSET ( 1, 0, .AHEAD. ) ;
#227 = CIRCLE ( 'NONE', #155, 2.000000000000000888 ) ;
#228 = PRODUCT_RELATED_PRODUCT_CATEGORY ( 'detail', '', ( #112 ) ) ;
#229 = APPROVAL_STATUS ( 'not_yet_approved' ) ;
#230 = AXIS2_PLACEMENT_3D ( 'NONE', #48, #105, #31 ) ;
#231 = EDGE_LOOP ( 'NONE', ( #39 ) ) ;
#232 = PERSON_AND_ORGANIZATION_ROLE ( 'classification_officer' ) ;
#233 = SHAPE_DEFINITION_REPRESENTATION ( #20, #222 ) ;
#234 = ORIENTED_EDGE ( 'NONE', *, *, #145, .F. ) ;
#235 = DIRECTION ( 'NONE',  ( -3.491481338843133355E-15, 1.224646799147353207E-16, -1.000000000000000000 ) ) ;
#236 = CARTESIAN_POINT ( 'NONE',  ( 2.779219145719134403E-13, -9.748188521212932624E-15, 79.60000000000000853 ) ) ;
#237 = CIRCLE ( 'NONE', #3, 2.220000000000009965 ) ;
#238 = ADVANCED_FACE ( 'NONE', ( #11, #87 ), #64, .T. ) ;
#239 = FACE_OUTER_BOUND ( 'NONE', #231, .T. ) ;
#240 = DIRECTION ( 'NONE',  ( -3.491481338843133355E-15, 1.224646799147353207E-16, -1.000000000000000000 ) ) ;
#241 = FACE_OUTER_BOUND ( 'NONE', #41, .T. ) ;
#242 = APPROVAL_DATE_TIME ( #14, #111 ) ;
#243 = APPROVAL ( #229, 'UNSPECIFIED' ) ;
ENDSEC;
END-ISO-10303-21;
