ISO-10303-21;
HEADER;
FILE_DESCRIPTION (( 'STEP AP203' ),
    '1' );
FILE_NAME ('321669.step',
    '2021-12-02T12:56:17',
    ( '' ),
    ( '' ),
    'SwSTEP 2.0',
    'SolidWorks 2019',
    '' );
FILE_SCHEMA (( 'CONFIG_CONTROL_DESIGN' ));
ENDSEC;

DATA;
#1 = DIRECTION ( 'NONE',  ( -3.491481338843133355E-15, 1.224646799147353207E-16, -1.000000000000000000 ) ) ;
#2 = MANIFOLD_SOLID_BREP ( 'Corps-Déplacer/Copier1[1]', #231 ) ;
#3 =( GEOMETRIC_REPRESENTATION_CONTEXT ( 3 ) GLOBAL_UNCERTAINTY_ASSIGNED_CONTEXT ( ( #50 ) ) GLOBAL_UNIT_ASSIGNED_CONTEXT ( ( #199, #200, #235 ) ) REPRESENTATION_CONTEXT ( 'NONE', 'WORKASPACE' ) );
#4 = ADVANCED_FACE ( 'NONE', ( #237 ), #70, .T. ) ;
#5 = DIRECTION ( 'NONE',  ( -3.491481338843133355E-15, 1.224646799147353207E-16, -1.000000000000000000 ) ) ;
#6 = CARTESIAN_POINT ( 'NONE',  ( 2.793185071074506684E-13, 1.199807826129472128E-32, 80.00000000000000000 ) ) ;
#7 = COORDINATED_UNIVERSAL_TIME_OFFSET ( 1, 0, .AHEAD. ) ;
#8 = EDGE_CURVE ( 'NONE', #159, #159, #124, .T. ) ;
#9 = CC_DESIGN_APPROVAL ( #33, ( #73 ) ) ;
#10 = DIRECTION ( 'NONE',  ( 0.0000000000000000000, 0.0000000000000000000, 1.000000000000000000 ) ) ;
#11 = DIRECTION ( 'NONE',  ( 4.275831445896958607E-31, 1.000000000000000000, 1.224646799147353207E-16 ) ) ;
#12 = VERTEX_POINT ( 'NONE', #232 ) ;
#13 = CC_DESIGN_DATE_AND_TIME_ASSIGNMENT ( #147, #117, ( #73 ) ) ;
#14 = CALENDAR_DATE ( 2021, 2, 12 ) ;
#15 = SECURITY_CLASSIFICATION_LEVEL ( 'unclassified' ) ;
#16 = APPROVAL ( #128, 'UNSPECIFIED' ) ;
#17 = EDGE_LOOP ( 'NONE', ( #38 ) ) ;
#18 = AXIS2_PLACEMENT_3D ( 'NONE', #27, #192, #226 ) ;
#19 = ORIENTED_EDGE ( 'NONE', *, *, #8, .T. ) ;
#20 = APPROVAL_DATE_TIME ( #37, #16 ) ;
#21 = DIRECTION ( 'NONE',  ( -4.275831445896958607E-31, -1.000000000000000000, -1.224646799147353207E-16 ) ) ;
#22 = DIRECTION ( 'NONE',  ( 3.491481338843133355E-15, -1.224646799147353207E-16, 1.000000000000000000 ) ) ;
#23 = PLANE ( 'NONE',  #98 ) ;
#24 = EDGE_CURVE ( 'NONE', #120, #120, #115, .T. ) ;
#25 = DIRECTION ( 'NONE',  ( -3.491481338843133355E-15, 1.224646799147353207E-16, -1.000000000000000000 ) ) ;
#26 = AXIS2_PLACEMENT_3D ( 'NONE', #76, #5, #81 ) ;
#27 = CARTESIAN_POINT ( 'NONE',  ( 1.396592535537253145E-15, -4.898587196589411843E-17, 0.3999999999999999112 ) ) ;
#28 = APPROVAL_STATUS ( 'not_yet_approved' ) ;
#29 = CARTESIAN_POINT ( 'NONE',  ( 2.779219145719134403E-13, 1.999999999999991340, 79.60000000000000853 ) ) ;
#30 = AXIS2_PLACEMENT_3D ( 'NONE', #40, #22, #227 ) ;
#31 = APPROVAL_ROLE ( '' ) ;
#32 = CARTESIAN_POINT ( 'NONE',  ( 0.0000000000000000000, 1.815000000000008606, 0.0000000000000000000 ) ) ;
#33 = APPROVAL ( #34, 'UNSPECIFIED' ) ;
#34 = APPROVAL_STATUS ( 'not_yet_approved' ) ;
#35 = CC_DESIGN_SECURITY_CLASSIFICATION ( #36, ( #101 ) ) ;
#36 = SECURITY_CLASSIFICATION ( '', '', #15 ) ;
#37 = DATE_AND_TIME ( #183, #118 ) ;
#38 = ORIENTED_EDGE ( 'NONE', *, *, #164, .F. ) ;
#39 = EDGE_LOOP ( 'NONE', ( #239 ) ) ;
#40 = CARTESIAN_POINT ( 'NONE',  ( -7.760634074303016944E-31, 2.722064005531284860E-32, -2.222733940452456803E-16 ) ) ;
#41 = CARTESIAN_POINT ( 'NONE',  ( 2.779219145719134403E-13, -9.748188521212932624E-15, 79.60000000000000853 ) ) ;
#42 = FACE_OUTER_BOUND ( 'NONE', #207, .T. ) ;
#43 = CC_DESIGN_PERSON_AND_ORGANIZATION_ASSIGNMENT ( #104, #75, ( #101 ) ) ;
#44 = FACE_OUTER_BOUND ( 'NONE', #107, .T. ) ;
#45 = CC_DESIGN_PERSON_AND_ORGANIZATION_ASSIGNMENT ( #48, #123, ( #127 ) ) ;
#46 = COORDINATED_UNIVERSAL_TIME_OFFSET ( 1, 0, .AHEAD. ) ;
#47 = DATE_AND_TIME ( #140, #49 ) ;
#48 = PERSON_AND_ORGANIZATION ( #243, #174 ) ;
#49 = LOCAL_TIME ( 13, 56, 17.00000000000000000, #7 ) ;
#50 = UNCERTAINTY_MEASURE_WITH_UNIT (LENGTH_MEASURE( 1.000000000000000082E-05 ), #199, 'distance_accuracy_value', 'NONE');
#51 = APPLICATION_CONTEXT ( 'configuration controlled 3d designs of mechanical parts and assemblies' ) ;
#52 = ADVANCED_FACE ( 'NONE', ( #96, #135 ), #198, .T. ) ;
#53 = PERSON_AND_ORGANIZATION ( #243, #174 ) ;
#54 = ORIENTED_EDGE ( 'NONE', *, *, #172, .T. ) ;
#55 = EDGE_LOOP ( 'NONE', ( #74 ) ) ;
#56 = LOCAL_TIME ( 13, 56, 17.00000000000000000, #85 ) ;
#57 = AXIS2_PLACEMENT_3D ( 'NONE', #82, #25, #157 ) ;
#58 = DATE_AND_TIME ( #150, #204 ) ;
#59 = EDGE_LOOP ( 'NONE', ( #169 ) ) ;
#60 = EDGE_LOOP ( 'NONE', ( #108 ) ) ;
#61 = CARTESIAN_POINT ( 'NONE',  ( -3.880317037151508472E-31, 1.361032002765642430E-32, -1.111366970226228402E-16 ) ) ;
#62 = DIRECTION ( 'NONE',  ( 0.0000000000000000000, 1.000000000000000000, 0.0000000000000000000 ) ) ;
#63 = DIRECTION ( 'NONE',  ( 0.0000000000000000000, 1.000000000000000000, 0.0000000000000000000 ) ) ;
#64 = CYLINDRICAL_SURFACE ( 'NONE', #163, 1.999999999999996669 ) ;
#65 = DIRECTION ( 'NONE',  ( 4.275831445896958607E-31, 1.000000000000000000, 1.224646799147353207E-16 ) ) ;
#66 = DIRECTION ( 'NONE',  ( -3.491481338843133355E-15, 1.224646799147353207E-16, -1.000000000000000000 ) ) ;
#67 = EDGE_CURVE ( 'NONE', #217, #217, #167, .T. ) ;
#68 = CONICAL_SURFACE ( 'NONE', #186, 1.600000000000000977, 0.7853981633974512766 ) ;
#69 = PERSON_AND_ORGANIZATION_ROLE ( 'creator' ) ;
#70 = PLANE ( 'NONE',  #158 ) ;
#71 = AXIS2_PLACEMENT_3D ( 'NONE', #41, #212, #112 ) ;
#72 = PERSON_AND_ORGANIZATION ( #243, #174 ) ;
#73 = PRODUCT_DEFINITION ( 'UNKNOWN', '', #101, #142 ) ;
#74 = ORIENTED_EDGE ( 'NONE', *, *, #180, .T. ) ;
#75 = PERSON_AND_ORGANIZATION_ROLE ( 'design_supplier' ) ;
#76 = CARTESIAN_POINT ( 'NONE',  ( 4.189777606611760026E-14, -1.469576158976823947E-15, 12.00000000000000000 ) ) ;
#77 = ADVANCED_FACE ( 'NONE', ( #242, #44 ), #144, .T. ) ;
#78 = PLANE ( 'NONE',  #154 ) ;
#79 = AXIS2_PLACEMENT_3D ( 'NONE', #80, #113, #193 ) ;
#80 = CARTESIAN_POINT ( 'NONE',  ( 4.319797202671700917E-14, -1.515180894241998482E-15, 12.37239092362733750 ) ) ;
#81 = DIRECTION ( 'NONE',  ( 0.0000000000000000000, 1.000000000000000000, 0.0000000000000000000 ) ) ;
#82 = CARTESIAN_POINT ( 'NONE',  ( -7.760634074303016944E-31, 2.722064005531284860E-32, -2.222733940452456803E-16 ) ) ;
#83 = AXIS2_PLACEMENT_3D ( 'NONE', #195, #175, #241 ) ;
#84 = APPROVAL_DATE_TIME ( #103, #33 ) ;
#85 = COORDINATED_UNIVERSAL_TIME_OFFSET ( 1, 0, .AHEAD. ) ;
#86 = CARTESIAN_POINT ( 'NONE',  ( 0.0000000000000000000, 0.0000000000000000000, 0.0000000000000000000 ) ) ;
#87 = CLOSED_SHELL ( 'NONE', ( #238, #94, #4, #52 ) ) ;
#88 = AXIS2_PLACEMENT_3D ( 'NONE', #86, #66, #11 ) ;
#89 = PRODUCT_DEFINITION_SHAPE ( 'NONE', 'NONE',  #73 ) ;
#90 = CARTESIAN_POINT ( 'NONE',  ( 0.0000000000000000000, 0.0000000000000000000, 0.0000000000000000000 ) ) ;
#91 = EDGE_LOOP ( 'NONE', ( #187 ) ) ;
#92 = ADVANCED_FACE ( 'NONE', ( #191, #136 ), #68, .T. ) ;
#93 = DIRECTION ( 'NONE',  ( 4.275831445896958607E-31, 1.000000000000000000, 1.224646799147353207E-16 ) ) ;
#94 = ADVANCED_FACE ( 'NONE', ( #176 ), #78, .T. ) ;
#95 = DIRECTION ( 'NONE',  ( 0.0000000000000000000, 1.000000000000000000, 0.0000000000000000000 ) ) ;
#96 = FACE_OUTER_BOUND ( 'NONE', #168, .T. ) ;
#97 = APPROVAL_PERSON_ORGANIZATION ( #53, #16, #132 ) ;
#98 = AXIS2_PLACEMENT_3D ( 'NONE', #6, #210, #93 ) ;
#99 = CARTESIAN_POINT ( 'NONE',  ( 0.0000000000000000000, 0.0000000000000000000, 0.0000000000000000000 ) ) ;
#100 = APPROVAL_ROLE ( '' ) ;
#101 = PRODUCT_DEFINITION_FORMATION_WITH_SPECIFIED_SOURCE ( 'ANY', '', #127, .NOT_KNOWN. ) ;
#102 = CARTESIAN_POINT ( 'NONE',  ( 4.189777606611760026E-14, 2.215000000000008740, 12.00000000000000000 ) ) ;
#103 = DATE_AND_TIME ( #160, #56 ) ;
#104 = PERSON_AND_ORGANIZATION ( #243, #174 ) ;
#105 = CIRCLE ( 'NONE', #18, 2.215000000000010072 ) ;
#106 = EDGE_CURVE ( 'NONE', #12, #12, #105, .T. ) ;
#107 = EDGE_LOOP ( 'NONE', ( #126 ) ) ;
#108 = ORIENTED_EDGE ( 'NONE', *, *, #67, .T. ) ;
#109 = CARTESIAN_POINT ( 'NONE',  ( 4.189777606611760026E-14, 1.660983959298012857E-32, 12.00000000000000000 ) ) ;
#110 = CARTESIAN_POINT ( 'NONE',  ( 4.189777606611760026E-14, -1.469576158976823947E-15, 12.00000000000000000 ) ) ;
#111 = APPLICATION_CONTEXT ( 'configuration controlled 3d designs of mechanical parts and assemblies' ) ;
#112 = DIRECTION ( 'NONE',  ( 0.0000000000000000000, 1.000000000000000000, 0.0000000000000000000 ) ) ;
#113 = DIRECTION ( 'NONE',  ( -3.491481338843133355E-15, 1.224646799147353207E-16, -1.000000000000000000 ) ) ;
#114 = ADVANCED_FACE ( 'NONE', ( #42 ), #23, .F. ) ;
#115 = CIRCLE ( 'NONE', #83, 1.600000000000000977 ) ;
#116 = DIRECTION ( 'NONE',  ( -4.275831445896958607E-31, -1.000000000000000000, -1.224646799147353207E-16 ) ) ;
#117 = DATE_TIME_ROLE ( 'creation_date' ) ;
#118 = LOCAL_TIME ( 13, 56, 17.00000000000000000, #218 ) ;
#119 = AXIS2_PLACEMENT_3D ( 'NONE', #110, #1, #95 ) ;
#120 = VERTEX_POINT ( 'NONE', #216 ) ;
#121 = APPLICATION_PROTOCOL_DEFINITION ( 'international standard', 'config_control_design', 1994, #51 ) ;
#122 = ADVANCED_BREP_SHAPE_REPRESENTATION ( '321669', ( #2, #162, #131 ), #3 ) ;
#123 = PERSON_AND_ORGANIZATION_ROLE ( 'design_owner' ) ;
#124 = CIRCLE ( 'NONE', #190, 2.215000000000010072 ) ;
#125 = ORIENTED_EDGE ( 'NONE', *, *, #24, .F. ) ;
#126 = ORIENTED_EDGE ( 'NONE', *, *, #8, .F. ) ;
#127 = PRODUCT ( '321669', '321669', '', ( #146 ) ) ;
#128 = APPROVAL_STATUS ( 'not_yet_approved' ) ;
#129 = EDGE_LOOP ( 'NONE', ( #19 ) ) ;
#130 = CIRCLE ( 'NONE', #26, 2.215000000000010072 ) ;
#131 = AXIS2_PLACEMENT_3D ( 'NONE', #90, #10, #233 ) ;
#132 = APPROVAL_ROLE ( '' ) ;
#133 = ORIENTED_EDGE ( 'NONE', *, *, #164, .T. ) ;
#134 = ORIENTED_EDGE ( 'NONE', *, *, #106, .F. ) ;
#135 = FACE_BOUND ( 'NONE', #59, .T. ) ;
#136 = FACE_BOUND ( 'NONE', #39, .T. ) ;
#137 = DIRECTION ( 'NONE',  ( -3.491481338843133355E-15, 1.224646799147353207E-16, -1.000000000000000000 ) ) ;
#138 = DIRECTION ( 'NONE',  ( 4.275831445896958607E-31, 1.000000000000000000, 1.224646799147353207E-16 ) ) ;
#139 = FACE_OUTER_BOUND ( 'NONE', #129, .T. ) ;
#140 = CALENDAR_DATE ( 2021, 2, 12 ) ;
#141 = CC_DESIGN_DATE_AND_TIME_ASSIGNMENT ( #58, #166, ( #36 ) ) ;
#142 = DESIGN_CONTEXT ( 'detailed design', #51, 'design' ) ;
#143 = APPROVAL_PERSON_ORGANIZATION ( #196, #236, #100 ) ;
#144 = CONICAL_SURFACE ( 'NONE', #119, 2.215000000000010072, 0.5235987755983011471 ) ;
#145 = CARTESIAN_POINT ( 'NONE',  ( 4.319797202671700917E-14, 1.999999999999990452, 12.37239092362733750 ) ) ;
#146 = MECHANICAL_CONTEXT ( 'NONE', #111, 'mechanical' ) ;
#147 = DATE_AND_TIME ( #14, #213 ) ;
#148 = SHAPE_DEFINITION_REPRESENTATION ( #89, #122 ) ;
#149 = APPROVAL_PERSON_ORGANIZATION ( #202, #33, #31 ) ;
#150 = CALENDAR_DATE ( 2021, 2, 12 ) ;
#151 = PERSON_AND_ORGANIZATION ( #243, #174 ) ;
#152 = FACE_OUTER_BOUND ( 'NONE', #221, .T. ) ;
#153 = CARTESIAN_POINT ( 'NONE',  ( 2.793185071074506684E-13, -9.797174393178826052E-15, 80.00000000000000000 ) ) ;
#154 = AXIS2_PLACEMENT_3D ( 'NONE', #211, #173, #116 ) ;
#155 = DIRECTION ( 'NONE',  ( -3.491481338843133355E-15, 1.224646799147353207E-16, -1.000000000000000000 ) ) ;
#156 = FACE_OUTER_BOUND ( 'NONE', #17, .T. ) ;
#157 = DIRECTION ( 'NONE',  ( 4.275831445896958607E-31, 1.000000000000000000, 1.224646799147353207E-16 ) ) ;
#158 = AXIS2_PLACEMENT_3D ( 'NONE', #61, #155, #138 ) ;
#159 = VERTEX_POINT ( 'NONE', #102 ) ;
#160 = CALENDAR_DATE ( 2021, 2, 12 ) ;
#161 = CARTESIAN_POINT ( 'NONE',  ( 4.189777606611760026E-14, 2.215000000000008740, 12.00000000000000000 ) ) ;
#162 = MANIFOLD_SOLID_BREP ( 'Corps-Déplacer/Copier1[2]', #87 ) ;
#163 = AXIS2_PLACEMENT_3D ( 'NONE', #99, #229, #65 ) ;
#164 = EDGE_CURVE ( 'NONE', #178, #178, #234, .T. ) ;
#165 = VERTEX_POINT ( 'NONE', #32 ) ;
#166 = DATE_TIME_ROLE ( 'classification_date' ) ;
#167 = CIRCLE ( 'NONE', #71, 2.000000000000000888 ) ;
#168 = EDGE_LOOP ( 'NONE', ( #184 ) ) ;
#169 = ORIENTED_EDGE ( 'NONE', *, *, #172, .F. ) ;
#170 = FACE_OUTER_BOUND ( 'NONE', #55, .T. ) ;
#171 = DIRECTION ( 'NONE',  ( -3.491481338843133355E-15, 1.224646799147353207E-16, -1.000000000000000000 ) ) ;
#172 = EDGE_CURVE ( 'NONE', #165, #165, #215, .T. ) ;
#173 = DIRECTION ( 'NONE',  ( 3.491481338843133355E-15, -1.224646799147353207E-16, 1.000000000000000000 ) ) ;
#174 = ORGANIZATION ( 'UNSPECIFIED', 'UNSPECIFIED', '' ) ;
#175 = DIRECTION ( 'NONE',  ( -3.491481338843133355E-15, 1.224646799147353207E-16, -1.000000000000000000 ) ) ;
#176 = FACE_OUTER_BOUND ( 'NONE', #91, .T. ) ;
#177 = APPLICATION_PROTOCOL_DEFINITION ( 'international standard', 'config_control_design', 1994, #111 ) ;
#178 = VERTEX_POINT ( 'NONE', #145 ) ;
#179 = VERTEX_POINT ( 'NONE', #161 ) ;
#180 = EDGE_CURVE ( 'NONE', #179, #179, #130, .T. ) ;
#181 = CC_DESIGN_PERSON_AND_ORGANIZATION_ASSIGNMENT ( #72, #203, ( #101 ) ) ;
#182 = PERSON_AND_ORGANIZATION ( #243, #174 ) ;
#183 = CALENDAR_DATE ( 2021, 2, 12 ) ;
#184 = ORIENTED_EDGE ( 'NONE', *, *, #106, .T. ) ;
#185 = CC_DESIGN_APPROVAL ( #16, ( #36 ) ) ;
#186 = AXIS2_PLACEMENT_3D ( 'NONE', #153, #171, #63 ) ;
#187 = ORIENTED_EDGE ( 'NONE', *, *, #180, .F. ) ;
#188 = CC_DESIGN_PERSON_AND_ORGANIZATION_ASSIGNMENT ( #182, #69, ( #73 ) ) ;
#189 = DIRECTION ( 'NONE',  ( 3.491481338843133355E-15, -1.224646799147353207E-16, 1.000000000000000000 ) ) ;
#190 = AXIS2_PLACEMENT_3D ( 'NONE', #209, #137, #62 ) ;
#191 = FACE_OUTER_BOUND ( 'NONE', #205, .T. ) ;
#192 = DIRECTION ( 'NONE',  ( -3.491481338843133355E-15, 1.224646799147353207E-16, -1.000000000000000000 ) ) ;
#193 = DIRECTION ( 'NONE',  ( 0.0000000000000000000, 1.000000000000000000, 0.0000000000000000000 ) ) ;
#194 = AXIS2_PLACEMENT_3D ( 'NONE', #109, #189, #21 ) ;
#195 = CARTESIAN_POINT ( 'NONE',  ( 2.793185071074506684E-13, -9.797174393178826052E-15, 80.00000000000000000 ) ) ;
#196 = PERSON_AND_ORGANIZATION ( #243, #174 ) ;
#197 = APPROVAL_DATE_TIME ( #47, #236 ) ;
#198 = CONICAL_SURFACE ( 'NONE', #30, 1.815000000000008606, 0.7853981633974497223 ) ;
#199 =( LENGTH_UNIT ( ) NAMED_UNIT ( * ) SI_UNIT ( .MILLI., .METRE. ) );
#200 =( NAMED_UNIT ( * ) PLANE_ANGLE_UNIT ( ) SI_UNIT ( $, .RADIAN. ) );
#201 = CC_DESIGN_PERSON_AND_ORGANIZATION_ASSIGNMENT ( #151, #219, ( #36 ) ) ;
#202 = PERSON_AND_ORGANIZATION ( #243, #174 ) ;
#203 = PERSON_AND_ORGANIZATION_ROLE ( 'creator' ) ;
#204 = LOCAL_TIME ( 13, 56, 17.00000000000000000, #222 ) ;
#205 = EDGE_LOOP ( 'NONE', ( #224 ) ) ;
#206 = EDGE_LOOP ( 'NONE', ( #54 ) ) ;
#207 = EDGE_LOOP ( 'NONE', ( #125 ) ) ;
#208 = ADVANCED_FACE ( 'NONE', ( #156, #228 ), #64, .T. ) ;
#209 = CARTESIAN_POINT ( 'NONE',  ( 4.189777606611760026E-14, -1.469576158976823947E-15, 12.00000000000000000 ) ) ;
#210 = DIRECTION ( 'NONE',  ( -3.491481338843133355E-15, 1.224646799147353207E-16, -1.000000000000000000 ) ) ;
#211 = CARTESIAN_POINT ( 'NONE',  ( 4.189777606611760026E-14, 1.660983959298012857E-32, 12.00000000000000000 ) ) ;
#212 = DIRECTION ( 'NONE',  ( -3.491481338843133355E-15, 1.224646799147353207E-16, -1.000000000000000000 ) ) ;
#213 = LOCAL_TIME ( 13, 56, 17.00000000000000000, #46 ) ;
#214 = PLANE ( 'NONE',  #194 ) ;
#215 = CIRCLE ( 'NONE', #57, 1.815000000000008606 ) ;
#216 = CARTESIAN_POINT ( 'NONE',  ( 2.793185071074506684E-13, 1.599999999999991207, 80.00000000000000000 ) ) ;
#217 = VERTEX_POINT ( 'NONE', #29 ) ;
#218 = COORDINATED_UNIVERSAL_TIME_OFFSET ( 1, 0, .AHEAD. ) ;
#219 = PERSON_AND_ORGANIZATION_ROLE ( 'classification_officer' ) ;
#220 = ADVANCED_FACE ( 'NONE', ( #139 ), #214, .F. ) ;
#221 = EDGE_LOOP ( 'NONE', ( #134 ) ) ;
#222 = COORDINATED_UNIVERSAL_TIME_OFFSET ( 1, 0, .AHEAD. ) ;
#223 = CC_DESIGN_APPROVAL ( #236, ( #101 ) ) ;
#224 = ORIENTED_EDGE ( 'NONE', *, *, #67, .F. ) ;
#225 = CYLINDRICAL_SURFACE ( 'NONE', #88, 2.215000000000010072 ) ;
#226 = DIRECTION ( 'NONE',  ( 4.347471657758977427E-31, 1.000000000000000000, 1.223704483617945204E-16 ) ) ;
#227 = DIRECTION ( 'NONE',  ( -4.275831445896958607E-31, -1.000000000000000000, -1.224646799147353207E-16 ) ) ;
#228 = FACE_OUTER_BOUND ( 'NONE', #60, .T. ) ;
#229 = DIRECTION ( 'NONE',  ( -3.491481338843133355E-15, 1.224646799147353207E-16, -1.000000000000000000 ) ) ;
#230 = PRODUCT_RELATED_PRODUCT_CATEGORY ( 'detail', '', ( #127 ) ) ;
#231 = CLOSED_SHELL ( 'NONE', ( #220, #77, #208, #92, #114 ) ) ;
#232 = CARTESIAN_POINT ( 'NONE',  ( 1.396592535537254131E-15, 2.215000000000010072, 0.4000000000000001887 ) ) ;
#233 = DIRECTION ( 'NONE',  ( 1.000000000000000000, 0.0000000000000000000, 0.0000000000000000000 ) ) ;
#234 = CIRCLE ( 'NONE', #79, 1.999999999999991784 ) ;
#235 =( NAMED_UNIT ( * ) SI_UNIT ( $, .STERADIAN. ) SOLID_ANGLE_UNIT ( ) );
#236 = APPROVAL ( #28, 'UNSPECIFIED' ) ;
#237 = FACE_OUTER_BOUND ( 'NONE', #206, .T. ) ;
#238 = ADVANCED_FACE ( 'NONE', ( #170, #152 ), #225, .T. ) ;
#239 = ORIENTED_EDGE ( 'NONE', *, *, #24, .T. ) ;
#240 = EDGE_LOOP ( 'NONE', ( #133 ) ) ;
#241 = DIRECTION ( 'NONE',  ( 0.0000000000000000000, 1.000000000000000000, 0.0000000000000000000 ) ) ;
#242 = FACE_BOUND ( 'NONE', #240, .T. ) ;
#243 = PERSON ( 'UNSPECIFIED', 'UNSPECIFIED', 'UNSPECIFIED', ('UNSPECIFIED'), ('UNSPECIFIED'), ('UNSPECIFIED') ) ;
ENDSEC;
END-ISO-10303-21;
