ISO-10303-21;
HEADER;
FILE_DESCRIPTION (( 'STEP AP203' ),
    '1' );
FILE_NAME ('321668.step',
    '2021-12-02T12:56:16',
    ( '' ),
    ( '' ),
    'SwSTEP 2.0',
    'SolidWorks 2019',
    '' );
FILE_SCHEMA (( 'CONFIG_CONTROL_DESIGN' ));
ENDSEC;

DATA;
#1 = CC_DESIGN_APPROVAL ( #237, ( #72 ) ) ;
#2 = PERSON_AND_ORGANIZATION_ROLE ( 'creator' ) ;
#3 = PERSON_AND_ORGANIZATION ( #22, #228 ) ;
#4 = EDGE_LOOP ( 'NONE', ( #139 ) ) ;
#5 = FACE_OUTER_BOUND ( 'NONE', #101, .T. ) ;
#6 = FACE_OUTER_BOUND ( 'NONE', #121, .T. ) ;
#7 = CARTESIAN_POINT ( 'NONE',  ( 2.779219145719134403E-13, -9.748188521212932624E-15, 79.60000000000000853 ) ) ;
#8 = DIRECTION ( 'NONE',  ( 0.0000000000000000000, 1.000000000000000000, 0.0000000000000000000 ) ) ;
#9 = DIRECTION ( 'NONE',  ( 4.275831445896958607E-31, 1.000000000000000000, 1.224646799147353207E-16 ) ) ;
#10 = VERTEX_POINT ( 'NONE', #148 ) ;
#11 = AXIS2_PLACEMENT_3D ( 'NONE', #104, #195, #64 ) ;
#12 = CALENDAR_DATE ( 2021, 2, 12 ) ;
#13 = PERSON_AND_ORGANIZATION ( #22, #228 ) ;
#14 = PRODUCT ( '321668', '321668', '', ( #111 ) ) ;
#15 = CALENDAR_DATE ( 2021, 2, 12 ) ;
#16 = ADVANCED_FACE ( 'NONE', ( #136, #119 ), #159, .T. ) ;
#17 = AXIS2_PLACEMENT_3D ( 'NONE', #46, #126, #235 ) ;
#18 = APPROVAL_ROLE ( '' ) ;
#19 = PERSON_AND_ORGANIZATION ( #22, #228 ) ;
#20 = SECURITY_CLASSIFICATION_LEVEL ( 'unclassified' ) ;
#21 = EDGE_LOOP ( 'NONE', ( #152 ) ) ;
#22 = PERSON ( 'UNSPECIFIED', 'UNSPECIFIED', 'UNSPECIFIED', ('UNSPECIFIED'), ('UNSPECIFIED'), ('UNSPECIFIED') ) ;
#23 = CLOSED_SHELL ( 'NONE', ( #43, #91, #16, #243, #106 ) ) ;
#24 = ORIENTED_EDGE ( 'NONE', *, *, #230, .T. ) ;
#25 = CC_DESIGN_PERSON_AND_ORGANIZATION_ASSIGNMENT ( #13, #73, ( #14 ) ) ;
#26 = FACE_OUTER_BOUND ( 'NONE', #227, .T. ) ;
#27 = AXIS2_PLACEMENT_3D ( 'NONE', #7, #124, #213 ) ;
#28 = DIRECTION ( 'NONE',  ( -3.491481338843133355E-15, 1.224646799147353207E-16, -1.000000000000000000 ) ) ;
#29 = CARTESIAN_POINT ( 'NONE',  ( 0.0000000000000000000, 0.0000000000000000000, 0.0000000000000000000 ) ) ;
#30 = APPROVAL ( #242, 'UNSPECIFIED' ) ;
#31 = CARTESIAN_POINT ( 'NONE',  ( 1.396592535537252750E-15, -4.898587196589410610E-17, 0.3999999999999998002 ) ) ;
#32 = DIRECTION ( 'NONE',  ( 4.275831445896958607E-31, 1.000000000000000000, 1.224646799147353207E-16 ) ) ;
#33 = COORDINATED_UNIVERSAL_TIME_OFFSET ( 1, 0, .AHEAD. ) ;
#34 = APPROVAL_ROLE ( '' ) ;
#35 = SECURITY_CLASSIFICATION ( '', '', #20 ) ;
#36 = DIRECTION ( 'NONE',  ( 0.0000000000000000000, 0.0000000000000000000, 1.000000000000000000 ) ) ;
#37 = APPROVAL_ROLE ( '' ) ;
#38 = AXIS2_PLACEMENT_3D ( 'NONE', #214, #130, #198 ) ;
#39 = COORDINATED_UNIVERSAL_TIME_OFFSET ( 1, 0, .AHEAD. ) ;
#40 = APPROVAL ( #133, 'UNSPECIFIED' ) ;
#41 = ORIENTED_EDGE ( 'NONE', *, *, #110, .F. ) ;
#42 = ORIENTED_EDGE ( 'NONE', *, *, #149, .T. ) ;
#43 = ADVANCED_FACE ( 'NONE', ( #5 ), #176, .F. ) ;
#44 = PLANE ( 'NONE',  #240 ) ;
#45 = CONICAL_SURFACE ( 'NONE', #129, 1.600000000000000977, 0.7853981633974512766 ) ;
#46 = CARTESIAN_POINT ( 'NONE',  ( 4.189777606611760026E-14, -1.469576158976823947E-15, 12.00000000000000000 ) ) ;
#47 = CC_DESIGN_PERSON_AND_ORGANIZATION_ASSIGNMENT ( #19, #2, ( #72 ) ) ;
#48 = CARTESIAN_POINT ( 'NONE',  ( 2.793185071074506684E-13, 1.199807826129472128E-32, 80.00000000000000000 ) ) ;
#49 = FACE_OUTER_BOUND ( 'NONE', #81, .T. ) ;
#50 = DIRECTION ( 'NONE',  ( 3.491481338843133355E-15, -1.224646799147353207E-16, 1.000000000000000000 ) ) ;
#51 = COORDINATED_UNIVERSAL_TIME_OFFSET ( 1, 0, .AHEAD. ) ;
#52 = DATE_AND_TIME ( #77, #79 ) ;
#53 = APPLICATION_PROTOCOL_DEFINITION ( 'international standard', 'config_control_design', 1994, #223 ) ;
#54 =( NAMED_UNIT ( * ) SI_UNIT ( $, .STERADIAN. ) SOLID_ANGLE_UNIT ( ) );
#55 = PERSON_AND_ORGANIZATION_ROLE ( 'design_supplier' ) ;
#56 = CIRCLE ( 'NONE', #137, 1.999999999999991784 ) ;
#57 = DATE_AND_TIME ( #204, #168 ) ;
#58 = EDGE_LOOP ( 'NONE', ( #42 ) ) ;
#59 = UNCERTAINTY_MEASURE_WITH_UNIT (LENGTH_MEASURE( 1.000000000000000082E-05 ), #75, 'distance_accuracy_value', 'NONE');
#60 = AXIS2_PLACEMENT_3D ( 'NONE', #208, #103, #108 ) ;
#61 = ADVANCED_FACE ( 'NONE', ( #105, #140 ), #142, .T. ) ;
#62 = CARTESIAN_POINT ( 'NONE',  ( 4.189777606611760026E-14, 1.657234559841358459E-32, 12.00000000000000000 ) ) ;
#63 = EDGE_CURVE ( 'NONE', #147, #147, #107, .T. ) ;
#64 = DIRECTION ( 'NONE',  ( 0.0000000000000000000, 1.000000000000000000, 0.0000000000000000000 ) ) ;
#65 = PRODUCT_RELATED_PRODUCT_CATEGORY ( 'detail', '', ( #14 ) ) ;
#66 = APPROVAL_PERSON_ORGANIZATION ( #167, #30, #18 ) ;
#67 = DIRECTION ( 'NONE',  ( -4.275831445896958607E-31, -1.000000000000000000, -1.224646799147353207E-16 ) ) ;
#68 = ADVANCED_BREP_SHAPE_REPRESENTATION ( '321668', ( #156, #236, #157 ), #150 ) ;
#69 = DIRECTION ( 'NONE',  ( -3.491481338843133355E-15, 1.224646799147353207E-16, -1.000000000000000000 ) ) ;
#70 = DIRECTION ( 'NONE',  ( 3.491481338843133355E-15, -1.224646799147353207E-16, 1.000000000000000000 ) ) ;
#71 = VERTEX_POINT ( 'NONE', #164 ) ;
#72 = PRODUCT_DEFINITION_FORMATION_WITH_SPECIFIED_SOURCE ( 'ANY', '', #14, .NOT_KNOWN. ) ;
#73 = PERSON_AND_ORGANIZATION_ROLE ( 'design_owner' ) ;
#74 = VERTEX_POINT ( 'NONE', #177 ) ;
#75 =( LENGTH_UNIT ( ) NAMED_UNIT ( * ) SI_UNIT ( .MILLI., .METRE. ) );
#76 = AXIS2_PLACEMENT_3D ( 'NONE', #29, #69, #174 ) ;
#77 = CALENDAR_DATE ( 2021, 2, 12 ) ;
#78 = ORIENTED_EDGE ( 'NONE', *, *, #230, .F. ) ;
#79 = LOCAL_TIME ( 13, 56, 16.00000000000000000, #51 ) ;
#80 = COORDINATED_UNIVERSAL_TIME_OFFSET ( 1, 0, .AHEAD. ) ;
#81 = EDGE_LOOP ( 'NONE', ( #82 ) ) ;
#82 = ORIENTED_EDGE ( 'NONE', *, *, #63, .T. ) ;
#83 = DATE_AND_TIME ( #185, #99 ) ;
#84 = EDGE_LOOP ( 'NONE', ( #226 ) ) ;
#85 = AXIS2_PLACEMENT_3D ( 'NONE', #231, #87, #9 ) ;
#86 = DIRECTION ( 'NONE',  ( 4.275831445896958607E-31, 1.000000000000000000, 1.224646799147353207E-16 ) ) ;
#87 = DIRECTION ( 'NONE',  ( -3.491481338843133355E-15, 1.224646799147353207E-16, -1.000000000000000000 ) ) ;
#88 = FACE_OUTER_BOUND ( 'NONE', #170, .T. ) ;
#89 = AXIS2_PLACEMENT_3D ( 'NONE', #143, #28, #158 ) ;
#90 = DIRECTION ( 'NONE',  ( 4.357307566486939303E-31, 1.000000000000000000, 1.226473045798076411E-16 ) ) ;
#91 = ADVANCED_FACE ( 'NONE', ( #162, #163 ), #113, .T. ) ;
#92 = DIRECTION ( 'NONE',  ( -4.275831445896958607E-31, -1.000000000000000000, -1.224646799147353207E-16 ) ) ;
#93 = CARTESIAN_POINT ( 'NONE',  ( 4.189777606611760026E-14, 2.210000000000008846, 12.00000000000000000 ) ) ;
#94 = CARTESIAN_POINT ( 'NONE',  ( 0.0000000000000000000, 0.0000000000000000000, 0.0000000000000000000 ) ) ;
#95 = AXIS2_PLACEMENT_3D ( 'NONE', #62, #70, #67 ) ;
#96 = VERTEX_POINT ( 'NONE', #219 ) ;
#97 = DATE_AND_TIME ( #15, #179 ) ;
#98 = APPROVAL_DATE_TIME ( #83, #30 ) ;
#99 = LOCAL_TIME ( 13, 56, 16.00000000000000000, #39 ) ;
#100 = EDGE_CURVE ( 'NONE', #74, #74, #146, .T. ) ;
#101 = EDGE_LOOP ( 'NONE', ( #123 ) ) ;
#102 = APPROVAL_PERSON_ORGANIZATION ( #220, #237, #34 ) ;
#103 = DIRECTION ( 'NONE',  ( -3.491481338843133355E-15, 1.224646799147353207E-16, -1.000000000000000000 ) ) ;
#104 = CARTESIAN_POINT ( 'NONE',  ( 2.793185071074506684E-13, -9.797174393178826052E-15, 80.00000000000000000 ) ) ;
#105 = FACE_OUTER_BOUND ( 'NONE', #190, .T. ) ;
#106 = ADVANCED_FACE ( 'NONE', ( #26 ), #44, .F. ) ;
#107 = CIRCLE ( 'NONE', #85, 1.810000000000008935 ) ;
#108 = DIRECTION ( 'NONE',  ( 4.275831445896958607E-31, 1.000000000000000000, 1.224646799147353207E-16 ) ) ;
#109 = FACE_BOUND ( 'NONE', #84, .T. ) ;
#110 = EDGE_CURVE ( 'NONE', #71, #71, #188, .T. ) ;
#111 = MECHANICAL_CONTEXT ( 'NONE', #209, 'mechanical' ) ;
#112 = DATE_TIME_ROLE ( 'creation_date' ) ;
#113 = CONICAL_SURFACE ( 'NONE', #89, 2.210000000000010179, 0.5235987755983005920 ) ;
#114 = DIRECTION ( 'NONE',  ( -3.491481338843133355E-15, 1.224646799147353207E-16, -1.000000000000000000 ) ) ;
#115 = COORDINATED_UNIVERSAL_TIME_OFFSET ( 1, 0, .AHEAD. ) ;
#116 = DATE_TIME_ROLE ( 'classification_date' ) ;
#117 = CC_DESIGN_DATE_AND_TIME_ASSIGNMENT ( #52, #112, ( #135 ) ) ;
#118 = ORIENTED_EDGE ( 'NONE', *, *, #100, .F. ) ;
#119 = FACE_OUTER_BOUND ( 'NONE', #58, .T. ) ;
#120 = CIRCLE ( 'NONE', #17, 2.210000000000010179 ) ;
#121 = EDGE_LOOP ( 'NONE', ( #224 ) ) ;
#122 = DESIGN_CONTEXT ( 'detailed design', #223, 'design' ) ;
#123 = ORIENTED_EDGE ( 'NONE', *, *, #202, .T. ) ;
#124 = DIRECTION ( 'NONE',  ( -3.491481338843133355E-15, 1.224646799147353207E-16, -1.000000000000000000 ) ) ;
#125 = AXIS2_PLACEMENT_3D ( 'NONE', #161, #234, #193 ) ;
#126 = DIRECTION ( 'NONE',  ( -3.491481338843133355E-15, 1.224646799147353207E-16, -1.000000000000000000 ) ) ;
#127 = FACE_OUTER_BOUND ( 'NONE', #206, .T. ) ;
#128 = CARTESIAN_POINT ( 'NONE',  ( -7.739254917073533106E-31, 2.714565206617975517E-32, -2.216610706456720174E-16 ) ) ;
#129 = AXIS2_PLACEMENT_3D ( 'NONE', #239, #114, #182 ) ;
#130 = DIRECTION ( 'NONE',  ( -3.491481338843133355E-15, 1.224646799147353207E-16, -1.000000000000000000 ) ) ;
#131 = DATE_AND_TIME ( #12, #211 ) ;
#132 = CLOSED_SHELL ( 'NONE', ( #160, #205, #196, #61 ) ) ;
#133 = APPROVAL_STATUS ( 'not_yet_approved' ) ;
#134 = CARTESIAN_POINT ( 'NONE',  ( 4.316773491135424043E-14, 1.999999999999990452, 12.36373066958949529 ) ) ;
#135 = PRODUCT_DEFINITION ( 'UNKNOWN', '', #72, #122 ) ;
#136 = FACE_OUTER_BOUND ( 'NONE', #21, .T. ) ;
#137 = AXIS2_PLACEMENT_3D ( 'NONE', #145, #144, #8 ) ;
#138 = PERSON_AND_ORGANIZATION ( #22, #228 ) ;
#139 = ORIENTED_EDGE ( 'NONE', *, *, #63, .F. ) ;
#140 = FACE_BOUND ( 'NONE', #4, .T. ) ;
#141 = DIRECTION ( 'NONE',  ( -3.491481338843133355E-15, 1.224646799147353207E-16, -1.000000000000000000 ) ) ;
#142 = CONICAL_SURFACE ( 'NONE', #192, 1.810000000000008935, 0.7853981633974498333 ) ;
#143 = CARTESIAN_POINT ( 'NONE',  ( 4.189777606611760026E-14, -1.469576158976823947E-15, 12.00000000000000000 ) ) ;
#144 = DIRECTION ( 'NONE',  ( -3.491481338843133355E-15, 1.224646799147353207E-16, -1.000000000000000000 ) ) ;
#145 = CARTESIAN_POINT ( 'NONE',  ( 4.316773491135424043E-14, -1.514120319003273635E-15, 12.36373066958949529 ) ) ;
#146 = CIRCLE ( 'NONE', #11, 1.600000000000000977 ) ;
#147 = VERTEX_POINT ( 'NONE', #151 ) ;
#148 = CARTESIAN_POINT ( 'NONE',  ( 2.779219145719134403E-13, 1.999999999999991340, 79.60000000000000853 ) ) ;
#149 = EDGE_CURVE ( 'NONE', #10, #10, #233, .T. ) ;
#150 =( GEOMETRIC_REPRESENTATION_CONTEXT ( 3 ) GLOBAL_UNCERTAINTY_ASSIGNED_CONTEXT ( ( #59 ) ) GLOBAL_UNIT_ASSIGNED_CONTEXT ( ( #75, #183, #54 ) ) REPRESENTATION_CONTEXT ( 'NONE', 'WORKASPACE' ) );
#151 = CARTESIAN_POINT ( 'NONE',  ( 0.0000000000000000000, 1.810000000000008935, 0.0000000000000000000 ) ) ;
#152 = ORIENTED_EDGE ( 'NONE', *, *, #169, .F. ) ;
#153 = ORIENTED_EDGE ( 'NONE', *, *, #169, .T. ) ;
#154 = EDGE_LOOP ( 'NONE', ( #24 ) ) ;
#155 = PRODUCT_DEFINITION_SHAPE ( 'NONE', 'NONE',  #135 ) ;
#156 = MANIFOLD_SOLID_BREP ( 'Corps-Déplacer/Copier1[1]', #23 ) ;
#157 = AXIS2_PLACEMENT_3D ( 'NONE', #94, #36, #181 ) ;
#158 = DIRECTION ( 'NONE',  ( 0.0000000000000000000, 1.000000000000000000, 0.0000000000000000000 ) ) ;
#159 = CYLINDRICAL_SURFACE ( 'NONE', #175, 1.999999999999996669 ) ;
#160 = ADVANCED_FACE ( 'NONE', ( #232, #127 ), #194, .T. ) ;
#161 = CARTESIAN_POINT ( 'NONE',  ( 4.189777606611760026E-14, 1.657234559841358459E-32, 12.00000000000000000 ) ) ;
#162 = FACE_BOUND ( 'NONE', #186, .T. ) ;
#163 = FACE_OUTER_BOUND ( 'NONE', #189, .T. ) ;
#164 = CARTESIAN_POINT ( 'NONE',  ( 1.396592535537253737E-15, 2.210000000000010179, 0.4000000000000000777 ) ) ;
#165 = PERSON_AND_ORGANIZATION ( #22, #228 ) ;
#166 = CC_DESIGN_DATE_AND_TIME_ASSIGNMENT ( #57, #116, ( #35 ) ) ;
#167 = PERSON_AND_ORGANIZATION ( #22, #228 ) ;
#168 = LOCAL_TIME ( 13, 56, 16.00000000000000000, #80 ) ;
#169 = EDGE_CURVE ( 'NONE', #200, #200, #56, .T. ) ;
#170 = EDGE_LOOP ( 'NONE', ( #78 ) ) ;
#171 = CC_DESIGN_APPROVAL ( #40, ( #135 ) ) ;
#172 = CARTESIAN_POINT ( 'NONE',  ( 0.0000000000000000000, 0.0000000000000000000, 0.0000000000000000000 ) ) ;
#173 = DIRECTION ( 'NONE',  ( -3.491481338843133355E-15, 1.224646799147353207E-16, -1.000000000000000000 ) ) ;
#174 = DIRECTION ( 'NONE',  ( 4.275831445896958607E-31, 1.000000000000000000, 1.224646799147353207E-16 ) ) ;
#175 = AXIS2_PLACEMENT_3D ( 'NONE', #172, #210, #32 ) ;
#176 = PLANE ( 'NONE',  #125 ) ;
#177 = CARTESIAN_POINT ( 'NONE',  ( 2.793185071074506684E-13, 1.599999999999991207, 80.00000000000000000 ) ) ;
#178 = APPROVAL_DATE_TIME ( #97, #40 ) ;
#179 = LOCAL_TIME ( 13, 56, 16.00000000000000000, #115 ) ;
#180 = CC_DESIGN_SECURITY_CLASSIFICATION ( #35, ( #72 ) ) ;
#181 = DIRECTION ( 'NONE',  ( 1.000000000000000000, 0.0000000000000000000, 0.0000000000000000000 ) ) ;
#182 = DIRECTION ( 'NONE',  ( 0.0000000000000000000, 1.000000000000000000, 0.0000000000000000000 ) ) ;
#183 =( NAMED_UNIT ( * ) PLANE_ANGLE_UNIT ( ) SI_UNIT ( $, .RADIAN. ) );
#184 = APPROVAL_PERSON_ORGANIZATION ( #165, #40, #37 ) ;
#185 = CALENDAR_DATE ( 2021, 2, 12 ) ;
#186 = EDGE_LOOP ( 'NONE', ( #153 ) ) ;
#187 = ORIENTED_EDGE ( 'NONE', *, *, #202, .F. ) ;
#188 = CIRCLE ( 'NONE', #218, 2.210000000000010179 ) ;
#189 = EDGE_LOOP ( 'NONE', ( #187 ) ) ;
#190 = EDGE_LOOP ( 'NONE', ( #207 ) ) ;
#191 = PLANE ( 'NONE',  #60 ) ;
#192 = AXIS2_PLACEMENT_3D ( 'NONE', #128, #50, #92 ) ;
#193 = DIRECTION ( 'NONE',  ( -4.275831445896958607E-31, -1.000000000000000000, -1.224646799147353207E-16 ) ) ;
#194 = CYLINDRICAL_SURFACE ( 'NONE', #76, 2.210000000000010179 ) ;
#195 = DIRECTION ( 'NONE',  ( -3.491481338843133355E-15, 1.224646799147353207E-16, -1.000000000000000000 ) ) ;
#196 = ADVANCED_FACE ( 'NONE', ( #49 ), #191, .T. ) ;
#197 = CIRCLE ( 'NONE', #38, 2.210000000000010179 ) ;
#198 = DIRECTION ( 'NONE',  ( 0.0000000000000000000, 1.000000000000000000, 0.0000000000000000000 ) ) ;
#199 = APPROVAL_STATUS ( 'not_yet_approved' ) ;
#200 = VERTEX_POINT ( 'NONE', #134 ) ;
#201 = VERTEX_POINT ( 'NONE', #93 ) ;
#202 = EDGE_CURVE ( 'NONE', #96, #96, #120, .T. ) ;
#203 = PERSON_AND_ORGANIZATION_ROLE ( 'classification_officer' ) ;
#204 = CALENDAR_DATE ( 2021, 2, 12 ) ;
#205 = ADVANCED_FACE ( 'NONE', ( #88 ), #229, .T. ) ;
#206 = EDGE_LOOP ( 'NONE', ( #41 ) ) ;
#207 = ORIENTED_EDGE ( 'NONE', *, *, #110, .T. ) ;
#208 = CARTESIAN_POINT ( 'NONE',  ( -3.869627458536766553E-31, 1.357282603308987758E-32, -1.108305353228360087E-16 ) ) ;
#209 = APPLICATION_CONTEXT ( 'configuration controlled 3d designs of mechanical parts and assemblies' ) ;
#210 = DIRECTION ( 'NONE',  ( -3.491481338843133355E-15, 1.224646799147353207E-16, -1.000000000000000000 ) ) ;
#211 = LOCAL_TIME ( 13, 56, 16.00000000000000000, #33 ) ;
#212 = CC_DESIGN_APPROVAL ( #30, ( #35 ) ) ;
#213 = DIRECTION ( 'NONE',  ( 0.0000000000000000000, 1.000000000000000000, 0.0000000000000000000 ) ) ;
#214 = CARTESIAN_POINT ( 'NONE',  ( 4.189777606611760026E-14, -1.469576158976823947E-15, 12.00000000000000000 ) ) ;
#215 = CC_DESIGN_PERSON_AND_ORGANIZATION_ASSIGNMENT ( #138, #55, ( #72 ) ) ;
#216 = APPLICATION_PROTOCOL_DEFINITION ( 'international standard', 'config_control_design', 1994, #209 ) ;
#217 = PERSON_AND_ORGANIZATION ( #22, #228 ) ;
#218 = AXIS2_PLACEMENT_3D ( 'NONE', #31, #141, #90 ) ;
#219 = CARTESIAN_POINT ( 'NONE',  ( 4.189777606611760026E-14, 2.210000000000008846, 12.00000000000000000 ) ) ;
#220 = PERSON_AND_ORGANIZATION ( #22, #228 ) ;
#221 = CC_DESIGN_PERSON_AND_ORGANIZATION_ASSIGNMENT ( #3, #203, ( #35 ) ) ;
#222 = SHAPE_DEFINITION_REPRESENTATION ( #155, #68 ) ;
#223 = APPLICATION_CONTEXT ( 'configuration controlled 3d designs of mechanical parts and assemblies' ) ;
#224 = ORIENTED_EDGE ( 'NONE', *, *, #149, .F. ) ;
#225 = CC_DESIGN_PERSON_AND_ORGANIZATION_ASSIGNMENT ( #217, #241, ( #135 ) ) ;
#226 = ORIENTED_EDGE ( 'NONE', *, *, #100, .T. ) ;
#227 = EDGE_LOOP ( 'NONE', ( #118 ) ) ;
#228 = ORGANIZATION ( 'UNSPECIFIED', 'UNSPECIFIED', '' ) ;
#229 = PLANE ( 'NONE',  #95 ) ;
#230 = EDGE_CURVE ( 'NONE', #201, #201, #197, .T. ) ;
#231 = CARTESIAN_POINT ( 'NONE',  ( -7.739254917073533106E-31, 2.714565206617975517E-32, -2.216610706456720174E-16 ) ) ;
#232 = FACE_OUTER_BOUND ( 'NONE', #154, .T. ) ;
#233 = CIRCLE ( 'NONE', #27, 2.000000000000000888 ) ;
#234 = DIRECTION ( 'NONE',  ( 3.491481338843133355E-15, -1.224646799147353207E-16, 1.000000000000000000 ) ) ;
#235 = DIRECTION ( 'NONE',  ( 0.0000000000000000000, 1.000000000000000000, 0.0000000000000000000 ) ) ;
#236 = MANIFOLD_SOLID_BREP ( 'Corps-Déplacer/Copier1[2]', #132 ) ;
#237 = APPROVAL ( #199, 'UNSPECIFIED' ) ;
#238 = APPROVAL_DATE_TIME ( #131, #237 ) ;
#239 = CARTESIAN_POINT ( 'NONE',  ( 2.793185071074506684E-13, -9.797174393178826052E-15, 80.00000000000000000 ) ) ;
#240 = AXIS2_PLACEMENT_3D ( 'NONE', #48, #173, #86 ) ;
#241 = PERSON_AND_ORGANIZATION_ROLE ( 'creator' ) ;
#242 = APPROVAL_STATUS ( 'not_yet_approved' ) ;
#243 = ADVANCED_FACE ( 'NONE', ( #6, #109 ), #45, .T. ) ;
ENDSEC;
END-ISO-10303-21;
