ISO-10303-21;
HEADER;
FILE_DESCRIPTION (( 'STEP AP203' ),
    '1' );
FILE_NAME ('321667.step',
    '2021-12-02T12:56:16',
    ( '' ),
    ( '' ),
    'SwSTEP 2.0',
    'SolidWorks 2019',
    '' );
FILE_SCHEMA (( 'CONFIG_CONTROL_DESIGN' ));
ENDSEC;

DATA;
#1 = CONICAL_SURFACE ( 'NONE', #119, 2.205000000000009841, 0.5235987755983010361 ) ;
#2 = DIRECTION ( 'NONE',  ( -3.491481338843133355E-15, 1.224646799147353207E-16, -1.000000000000000000 ) ) ;
#3 = DIRECTION ( 'NONE',  ( 0.0000000000000000000, 1.000000000000000000, 0.0000000000000000000 ) ) ;
#4 = ORIENTED_EDGE ( 'NONE', *, *, #73, .F. ) ;
#5 = DIRECTION ( 'NONE',  ( 0.0000000000000000000, 1.000000000000000000, 0.0000000000000000000 ) ) ;
#6 = CIRCLE ( 'NONE', #82, 1.805000000000008598 ) ;
#7 = CARTESIAN_POINT ( 'NONE',  ( 4.189777606611760026E-14, -1.469576158976823947E-15, 12.00000000000000000 ) ) ;
#8 = PERSON_AND_ORGANIZATION_ROLE ( 'design_supplier' ) ;
#9 = VERTEX_POINT ( 'NONE', #121 ) ;
#10 =( GEOMETRIC_REPRESENTATION_CONTEXT ( 3 ) GLOBAL_UNCERTAINTY_ASSIGNED_CONTEXT ( ( #132 ) ) GLOBAL_UNIT_ASSIGNED_CONTEXT ( ( #125, #144, #66 ) ) REPRESENTATION_CONTEXT ( 'NONE', 'WORKASPACE' ) );
#11 = ORIENTED_EDGE ( 'NONE', *, *, #210, .F. ) ;
#12 = PERSON_AND_ORGANIZATION ( #32, #59 ) ;
#13 = COORDINATED_UNIVERSAL_TIME_OFFSET ( 1, 0, .AHEAD. ) ;
#14 = COORDINATED_UNIVERSAL_TIME_OFFSET ( 1, 0, .AHEAD. ) ;
#15 = AXIS2_PLACEMENT_3D ( 'NONE', #92, #2, #153 ) ;
#16 = CIRCLE ( 'NONE', #15, 1.999999999999991784 ) ;
#17 = LOCAL_TIME ( 13, 56, 16.00000000000000000, #108 ) ;
#18 = DIRECTION ( 'NONE',  ( 4.275831445896958607E-31, 1.000000000000000000, 1.224646799147353207E-16 ) ) ;
#19 = DIRECTION ( 'NONE',  ( 4.275831445896958607E-31, 1.000000000000000000, 1.224646799147353454E-16 ) ) ;
#20 = ORIENTED_EDGE ( 'NONE', *, *, #128, .F. ) ;
#21 = CARTESIAN_POINT ( 'NONE',  ( 1.396592535537253145E-15, -4.898587196589411843E-17, 0.3999999999999999112 ) ) ;
#22 = CARTESIAN_POINT ( 'NONE',  ( -7.717875759844047516E-31, 2.707066407704666174E-32, -2.210487472460983298E-16 ) ) ;
#23 = EDGE_LOOP ( 'NONE', ( #203 ) ) ;
#24 = CARTESIAN_POINT ( 'NONE',  ( 4.189777606611760026E-14, 1.653485160384703514E-32, 12.00000000000000000 ) ) ;
#25 = AXIS2_PLACEMENT_3D ( 'NONE', #191, #194, #224 ) ;
#26 = PERSON_AND_ORGANIZATION_ROLE ( 'creator' ) ;
#27 = APPLICATION_CONTEXT ( 'configuration controlled 3d designs of mechanical parts and assemblies' ) ;
#28 = APPROVAL_DATE_TIME ( #85, #49 ) ;
#29 = APPROVAL_ROLE ( '' ) ;
#30 = CARTESIAN_POINT ( 'NONE',  ( 4.189777606611760026E-14, -1.469576158976823947E-15, 12.00000000000000000 ) ) ;
#31 = EDGE_LOOP ( 'NONE', ( #185 ) ) ;
#32 = PERSON ( 'UNSPECIFIED', 'UNSPECIFIED', 'UNSPECIFIED', ('UNSPECIFIED'), ('UNSPECIFIED'), ('UNSPECIFIED') ) ;
#33 = CIRCLE ( 'NONE', #67, 1.600000000000000977 ) ;
#34 = LOCAL_TIME ( 13, 56, 16.00000000000000000, #13 ) ;
#35 = DIRECTION ( 'NONE',  ( -3.491481338843133355E-15, 1.224646799147353207E-16, -1.000000000000000000 ) ) ;
#36 = PRODUCT_DEFINITION ( 'UNKNOWN', '', #186, #57 ) ;
#37 = DIRECTION ( 'NONE',  ( -3.491481338843133355E-15, 1.224646799147353207E-16, -1.000000000000000000 ) ) ;
#38 = CYLINDRICAL_SURFACE ( 'NONE', #124, 1.999999999999996669 ) ;
#39 = CLOSED_SHELL ( 'NONE', ( #101, #41, #98, #198 ) ) ;
#40 = LOCAL_TIME ( 13, 56, 16.00000000000000000, #145 ) ;
#41 = ADVANCED_FACE ( 'NONE', ( #238 ), #71, .T. ) ;
#42 = DIRECTION ( 'NONE',  ( 0.0000000000000000000, 1.000000000000000000, 0.0000000000000000000 ) ) ;
#43 = DIRECTION ( 'NONE',  ( -3.491481338843133355E-15, 1.224646799147353207E-16, -1.000000000000000000 ) ) ;
#44 = PRODUCT_DEFINITION_SHAPE ( 'NONE', 'NONE',  #36 ) ;
#45 = DATE_TIME_ROLE ( 'classification_date' ) ;
#46 = DATE_AND_TIME ( #120, #147 ) ;
#47 = AXIS2_PLACEMENT_3D ( 'NONE', #24, #110, #228 ) ;
#48 = DATE_AND_TIME ( #83, #40 ) ;
#49 = APPROVAL ( #123, 'UNSPECIFIED' ) ;
#50 = SHAPE_DEFINITION_REPRESENTATION ( #44, #138 ) ;
#51 = AXIS2_PLACEMENT_3D ( 'NONE', #7, #213, #42 ) ;
#52 = DIRECTION ( 'NONE',  ( -4.275831445896958607E-31, -1.000000000000000000, -1.224646799147353207E-16 ) ) ;
#53 = CC_DESIGN_APPROVAL ( #55, ( #177 ) ) ;
#54 = DIRECTION ( 'NONE',  ( -3.491481338843133355E-15, 1.224646799147353207E-16, -1.000000000000000000 ) ) ;
#55 = APPROVAL ( #204, 'UNSPECIFIED' ) ;
#56 = FACE_OUTER_BOUND ( 'NONE', #152, .T. ) ;
#57 = DESIGN_CONTEXT ( 'detailed design', #27, 'design' ) ;
#58 = CARTESIAN_POINT ( 'NONE',  ( 0.0000000000000000000, 0.0000000000000000000, 0.0000000000000000000 ) ) ;
#59 = ORGANIZATION ( 'UNSPECIFIED', 'UNSPECIFIED', '' ) ;
#60 = EDGE_LOOP ( 'NONE', ( #205 ) ) ;
#61 = DIRECTION ( 'NONE',  ( 4.275831445896958607E-31, 1.000000000000000000, 1.224646799147353207E-16 ) ) ;
#62 = ADVANCED_FACE ( 'NONE', ( #187, #89 ), #1, .T. ) ;
#63 = FACE_OUTER_BOUND ( 'NONE', #60, .T. ) ;
#64 = CALENDAR_DATE ( 2021, 2, 12 ) ;
#65 = DATE_TIME_ROLE ( 'creation_date' ) ;
#66 =( NAMED_UNIT ( * ) SI_UNIT ( $, .STERADIAN. ) SOLID_ANGLE_UNIT ( ) );
#67 = AXIS2_PLACEMENT_3D ( 'NONE', #137, #37, #226 ) ;
#68 = ADVANCED_FACE ( 'NONE', ( #81 ), #163, .F. ) ;
#69 = CONICAL_SURFACE ( 'NONE', #212, 1.600000000000000977, 0.7853981633974512766 ) ;
#70 = MANIFOLD_SOLID_BREP ( 'Corps-Déplacer/Copier1[1]', #146 ) ;
#71 = PLANE ( 'NONE',  #131 ) ;
#72 = MANIFOLD_SOLID_BREP ( 'Corps-Déplacer/Copier1[2]', #39 ) ;
#73 = EDGE_CURVE ( 'NONE', #91, #91, #33, .T. ) ;
#74 = CARTESIAN_POINT ( 'NONE',  ( 2.779219145719134403E-13, -9.748188521212932624E-15, 79.60000000000000853 ) ) ;
#75 = DIRECTION ( 'NONE',  ( 4.275831445896958607E-31, 1.000000000000000000, 1.224646799147353207E-16 ) ) ;
#76 = CYLINDRICAL_SURFACE ( 'NONE', #207, 2.205000000000009841 ) ;
#77 = EDGE_LOOP ( 'NONE', ( #171 ) ) ;
#78 = VERTEX_POINT ( 'NONE', #135 ) ;
#79 = DIRECTION ( 'NONE',  ( -3.491481338843133355E-15, 1.224646799147353207E-16, -1.000000000000000000 ) ) ;
#80 = PERSON_AND_ORGANIZATION ( #32, #59 ) ;
#81 = FACE_OUTER_BOUND ( 'NONE', #175, .T. ) ;
#82 = AXIS2_PLACEMENT_3D ( 'NONE', #22, #79, #19 ) ;
#83 = CALENDAR_DATE ( 2021, 2, 12 ) ;
#84 = EDGE_CURVE ( 'NONE', #189, #189, #16, .T. ) ;
#85 = DATE_AND_TIME ( #99, #34 ) ;
#86 = AXIS2_PLACEMENT_3D ( 'NONE', #102, #167, #100 ) ;
#87 = EDGE_LOOP ( 'NONE', ( #93 ) ) ;
#88 = DIRECTION ( 'NONE',  ( -3.491481338843133355E-15, 1.224646799147353207E-16, -1.000000000000000000 ) ) ;
#89 = FACE_OUTER_BOUND ( 'NONE', #130, .T. ) ;
#90 = DIRECTION ( 'NONE',  ( 4.275831445896958607E-31, 1.000000000000000000, 1.224646799147353207E-16 ) ) ;
#91 = VERTEX_POINT ( 'NONE', #94 ) ;
#92 = CARTESIAN_POINT ( 'NONE',  ( 4.313749779599145908E-14, -1.513059743764548591E-15, 12.35507041555164953 ) ) ;
#93 = ORIENTED_EDGE ( 'NONE', *, *, #241, .T. ) ;
#94 = CARTESIAN_POINT ( 'NONE',  ( 2.793185071074506684E-13, 1.599999999999991207, 80.00000000000000000 ) ) ;
#95 = FACE_BOUND ( 'NONE', #190, .T. ) ;
#96 = CIRCLE ( 'NONE', #51, 2.205000000000009841 ) ;
#97 = APPROVAL_PERSON_ORGANIZATION ( #237, #55, #29 ) ;
#98 = ADVANCED_FACE ( 'NONE', ( #230 ), #170, .T. ) ;
#99 = CALENDAR_DATE ( 2021, 2, 12 ) ;
#100 = DIRECTION ( 'NONE',  ( 1.000000000000000000, 0.0000000000000000000, 0.0000000000000000000 ) ) ;
#101 = ADVANCED_FACE ( 'NONE', ( #56, #211 ), #76, .T. ) ;
#102 = CARTESIAN_POINT ( 'NONE',  ( 0.0000000000000000000, 0.0000000000000000000, 0.0000000000000000000 ) ) ;
#103 = CIRCLE ( 'NONE', #239, 2.205000000000009841 ) ;
#104 = CC_DESIGN_APPROVAL ( #122, ( #36 ) ) ;
#105 = APPROVAL_ROLE ( '' ) ;
#106 = CC_DESIGN_DATE_AND_TIME_ASSIGNMENT ( #48, #65, ( #36 ) ) ;
#107 = PERSON_AND_ORGANIZATION_ROLE ( 'creator' ) ;
#108 = COORDINATED_UNIVERSAL_TIME_OFFSET ( 1, 0, .AHEAD. ) ;
#109 = CC_DESIGN_PERSON_AND_ORGANIZATION_ASSIGNMENT ( #184, #233, ( #177 ) ) ;
#110 = DIRECTION ( 'NONE',  ( 3.491481338843133355E-15, -1.224646799147353207E-16, 1.000000000000000000 ) ) ;
#111 = DIRECTION ( 'NONE',  ( -3.491481338843133355E-15, 1.224646799147353207E-16, -1.000000000000000000 ) ) ;
#112 = CARTESIAN_POINT ( 'NONE',  ( 2.793185071074506684E-13, -9.797174393178826052E-15, 80.00000000000000000 ) ) ;
#113 = PRODUCT ( '321667', '321667', '', ( #180 ) ) ;
#114 = DIRECTION ( 'NONE',  ( -3.491481338843133355E-15, 1.224646799147353207E-16, -1.000000000000000000 ) ) ;
#115 = ORIENTED_EDGE ( 'NONE', *, *, #215, .T. ) ;
#116 = FACE_OUTER_BOUND ( 'NONE', #127, .T. ) ;
#117 = ADVANCED_FACE ( 'NONE', ( #63, #192 ), #38, .T. ) ;
#118 = ORIENTED_EDGE ( 'NONE', *, *, #161, .T. ) ;
#119 = AXIS2_PLACEMENT_3D ( 'NONE', #30, #88, #225 ) ;
#120 = CALENDAR_DATE ( 2021, 2, 12 ) ;
#121 = CARTESIAN_POINT ( 'NONE',  ( 2.779219145719134403E-13, 1.999999999999991340, 79.60000000000000853 ) ) ;
#122 = APPROVAL ( #216, 'UNSPECIFIED' ) ;
#123 = APPROVAL_STATUS ( 'not_yet_approved' ) ;
#124 = AXIS2_PLACEMENT_3D ( 'NONE', #140, #111, #90 ) ;
#125 =( LENGTH_UNIT ( ) NAMED_UNIT ( * ) SI_UNIT ( .MILLI., .METRE. ) );
#126 = ADVANCED_FACE ( 'NONE', ( #160, #208 ), #69, .T. ) ;
#127 = EDGE_LOOP ( 'NONE', ( #156 ) ) ;
#128 = EDGE_CURVE ( 'NONE', #78, #78, #103, .T. ) ;
#129 = CALENDAR_DATE ( 2021, 2, 12 ) ;
#130 = EDGE_LOOP ( 'NONE', ( #11 ) ) ;
#131 = AXIS2_PLACEMENT_3D ( 'NONE', #223, #148, #52 ) ;
#132 = UNCERTAINTY_MEASURE_WITH_UNIT (LENGTH_MEASURE( 1.000000000000000082E-05 ), #125, 'distance_accuracy_value', 'NONE');
#133 = CC_DESIGN_APPROVAL ( #49, ( #186 ) ) ;
#134 = ORIENTED_EDGE ( 'NONE', *, *, #128, .T. ) ;
#135 = CARTESIAN_POINT ( 'NONE',  ( 1.396592535537254131E-15, 2.205000000000009841, 0.4000000000000001887 ) ) ;
#136 = CC_DESIGN_PERSON_AND_ORGANIZATION_ASSIGNMENT ( #179, #107, ( #186 ) ) ;
#137 = CARTESIAN_POINT ( 'NONE',  ( 2.793185071074506684E-13, -9.797174393178826052E-15, 80.00000000000000000 ) ) ;
#138 = ADVANCED_BREP_SHAPE_REPRESENTATION ( '321667', ( #70, #72, #86 ), #10 ) ;
#139 = FACE_OUTER_BOUND ( 'NONE', #227, .T. ) ;
#140 = CARTESIAN_POINT ( 'NONE',  ( 0.0000000000000000000, 0.0000000000000000000, 0.0000000000000000000 ) ) ;
#141 = CC_DESIGN_PERSON_AND_ORGANIZATION_ASSIGNMENT ( #80, #8, ( #186 ) ) ;
#142 = DATE_AND_TIME ( #64, #240 ) ;
#143 = PERSON_AND_ORGANIZATION_ROLE ( 'design_owner' ) ;
#144 =( NAMED_UNIT ( * ) PLANE_ANGLE_UNIT ( ) SI_UNIT ( $, .RADIAN. ) );
#145 = COORDINATED_UNIVERSAL_TIME_OFFSET ( 1, 0, .AHEAD. ) ;
#146 = CLOSED_SHELL ( 'NONE', ( #174, #62, #117, #126, #68 ) ) ;
#147 = LOCAL_TIME ( 13, 56, 16.00000000000000000, #201 ) ;
#148 = DIRECTION ( 'NONE',  ( 3.491481338843133355E-15, -1.224646799147353207E-16, 1.000000000000000000 ) ) ;
#149 = EDGE_LOOP ( 'NONE', ( #20 ) ) ;
#150 = AXIS2_PLACEMENT_3D ( 'NONE', #169, #43, #61 ) ;
#151 = APPROVAL_PERSON_ORGANIZATION ( #218, #49, #182 ) ;
#152 = EDGE_LOOP ( 'NONE', ( #118 ) ) ;
#153 = DIRECTION ( 'NONE',  ( 0.0000000000000000000, 1.000000000000000000, 0.0000000000000000000 ) ) ;
#154 = PLANE ( 'NONE',  #47 ) ;
#155 = ORIENTED_EDGE ( 'NONE', *, *, #241, .F. ) ;
#156 = ORIENTED_EDGE ( 'NONE', *, *, #210, .T. ) ;
#157 = CIRCLE ( 'NONE', #195, 2.000000000000000888 ) ;
#158 = DIRECTION ( 'NONE',  ( -3.491481338843133355E-15, 1.224646799147353207E-16, -1.000000000000000000 ) ) ;
#159 = CC_DESIGN_PERSON_AND_ORGANIZATION_ASSIGNMENT ( #166, #143, ( #113 ) ) ;
#160 = FACE_OUTER_BOUND ( 'NONE', #77, .T. ) ;
#161 = EDGE_CURVE ( 'NONE', #209, #209, #168, .T. ) ;
#162 = SECURITY_CLASSIFICATION_LEVEL ( 'unclassified' ) ;
#163 = PLANE ( 'NONE',  #150 ) ;
#164 = APPLICATION_PROTOCOL_DEFINITION ( 'international standard', 'config_control_design', 1994, #222 ) ;
#165 = VERTEX_POINT ( 'NONE', #234 ) ;
#166 = PERSON_AND_ORGANIZATION ( #32, #59 ) ;
#167 = DIRECTION ( 'NONE',  ( 0.0000000000000000000, 0.0000000000000000000, 1.000000000000000000 ) ) ;
#168 = CIRCLE ( 'NONE', #200, 2.205000000000009841 ) ;
#169 = CARTESIAN_POINT ( 'NONE',  ( 2.793185071074506684E-13, 1.199807826129472128E-32, 80.00000000000000000 ) ) ;
#170 = PLANE ( 'NONE',  #229 ) ;
#171 = ORIENTED_EDGE ( 'NONE', *, *, #215, .F. ) ;
#172 = CARTESIAN_POINT ( 'NONE',  ( 4.189777606611760026E-14, 2.205000000000008509, 12.00000000000000000 ) ) ;
#173 = DIRECTION ( 'NONE',  ( 4.367188082510719815E-31, 1.000000000000000000, 1.229254163815759294E-16 ) ) ;
#174 = ADVANCED_FACE ( 'NONE', ( #116 ), #154, .F. ) ;
#175 = EDGE_LOOP ( 'NONE', ( #4 ) ) ;
#176 = CARTESIAN_POINT ( 'NONE',  ( 4.313749779599145908E-14, 1.999999999999990452, 12.35507041555164953 ) ) ;
#177 = SECURITY_CLASSIFICATION ( '', '', #162 ) ;
#178 = CARTESIAN_POINT ( 'NONE',  ( -3.858937879922023758E-31, 1.353533203852333087E-32, -1.105243736230491649E-16 ) ) ;
#179 = PERSON_AND_ORGANIZATION ( #32, #59 ) ;
#180 = MECHANICAL_CONTEXT ( 'NONE', #222, 'mechanical' ) ;
#181 = CC_DESIGN_SECURITY_CLASSIFICATION ( #177, ( #186 ) ) ;
#182 = APPROVAL_ROLE ( '' ) ;
#183 = EDGE_LOOP ( 'NONE', ( #217 ) ) ;
#184 = PERSON_AND_ORGANIZATION ( #32, #59 ) ;
#185 = ORIENTED_EDGE ( 'NONE', *, *, #84, .T. ) ;
#186 = PRODUCT_DEFINITION_FORMATION_WITH_SPECIFIED_SOURCE ( 'ANY', '', #113, .NOT_KNOWN. ) ;
#187 = FACE_BOUND ( 'NONE', #31, .T. ) ;
#188 = EDGE_LOOP ( 'NONE', ( #115 ) ) ;
#189 = VERTEX_POINT ( 'NONE', #176 ) ;
#190 = EDGE_LOOP ( 'NONE', ( #155 ) ) ;
#191 = CARTESIAN_POINT ( 'NONE',  ( -7.717875759844047516E-31, 2.707066407704666174E-32, -2.210487472460983298E-16 ) ) ;
#192 = FACE_OUTER_BOUND ( 'NONE', #188, .T. ) ;
#193 = DIRECTION ( 'NONE',  ( 0.0000000000000000000, 1.000000000000000000, 0.0000000000000000000 ) ) ;
#194 = DIRECTION ( 'NONE',  ( 3.491481338843133355E-15, -1.224646799147353207E-16, 1.000000000000000000 ) ) ;
#195 = AXIS2_PLACEMENT_3D ( 'NONE', #74, #158, #193 ) ;
#196 = APPROVAL_DATE_TIME ( #46, #122 ) ;
#197 = VERTEX_POINT ( 'NONE', #235 ) ;
#198 = ADVANCED_FACE ( 'NONE', ( #139, #95 ), #236, .T. ) ;
#199 = PERSON_AND_ORGANIZATION ( #32, #59 ) ;
#200 = AXIS2_PLACEMENT_3D ( 'NONE', #243, #214, #3 ) ;
#201 = COORDINATED_UNIVERSAL_TIME_OFFSET ( 1, 0, .AHEAD. ) ;
#202 = CC_DESIGN_DATE_AND_TIME_ASSIGNMENT ( #142, #45, ( #177 ) ) ;
#203 = ORIENTED_EDGE ( 'NONE', *, *, #73, .T. ) ;
#204 = APPROVAL_STATUS ( 'not_yet_approved' ) ;
#205 = ORIENTED_EDGE ( 'NONE', *, *, #84, .F. ) ;
#206 = DATE_AND_TIME ( #129, #17 ) ;
#207 = AXIS2_PLACEMENT_3D ( 'NONE', #58, #54, #18 ) ;
#208 = FACE_BOUND ( 'NONE', #23, .T. ) ;
#209 = VERTEX_POINT ( 'NONE', #172 ) ;
#210 = EDGE_CURVE ( 'NONE', #165, #165, #96, .T. ) ;
#211 = FACE_OUTER_BOUND ( 'NONE', #149, .T. ) ;
#212 = AXIS2_PLACEMENT_3D ( 'NONE', #112, #35, #5 ) ;
#213 = DIRECTION ( 'NONE',  ( -3.491481338843133355E-15, 1.224646799147353207E-16, -1.000000000000000000 ) ) ;
#214 = DIRECTION ( 'NONE',  ( -3.491481338843133355E-15, 1.224646799147353207E-16, -1.000000000000000000 ) ) ;
#215 = EDGE_CURVE ( 'NONE', #9, #9, #157, .T. ) ;
#216 = APPROVAL_STATUS ( 'not_yet_approved' ) ;
#217 = ORIENTED_EDGE ( 'NONE', *, *, #161, .F. ) ;
#218 = PERSON_AND_ORGANIZATION ( #32, #59 ) ;
#219 = APPLICATION_PROTOCOL_DEFINITION ( 'international standard', 'config_control_design', 1994, #27 ) ;
#220 = APPROVAL_DATE_TIME ( #206, #55 ) ;
#221 = APPROVAL_PERSON_ORGANIZATION ( #199, #122, #105 ) ;
#222 = APPLICATION_CONTEXT ( 'configuration controlled 3d designs of mechanical parts and assemblies' ) ;
#223 = CARTESIAN_POINT ( 'NONE',  ( 4.189777606611760026E-14, 1.653485160384703514E-32, 12.00000000000000000 ) ) ;
#224 = DIRECTION ( 'NONE',  ( -4.275831445896958607E-31, -1.000000000000000000, -1.224646799147353454E-16 ) ) ;
#225 = DIRECTION ( 'NONE',  ( 0.0000000000000000000, 1.000000000000000000, 0.0000000000000000000 ) ) ;
#226 = DIRECTION ( 'NONE',  ( 0.0000000000000000000, 1.000000000000000000, 0.0000000000000000000 ) ) ;
#227 = EDGE_LOOP ( 'NONE', ( #134 ) ) ;
#228 = DIRECTION ( 'NONE',  ( -4.275831445896958607E-31, -1.000000000000000000, -1.224646799147353207E-16 ) ) ;
#229 = AXIS2_PLACEMENT_3D ( 'NONE', #178, #231, #75 ) ;
#230 = FACE_OUTER_BOUND ( 'NONE', #87, .T. ) ;
#231 = DIRECTION ( 'NONE',  ( -3.491481338843133355E-15, 1.224646799147353207E-16, -1.000000000000000000 ) ) ;
#232 = PRODUCT_RELATED_PRODUCT_CATEGORY ( 'detail', '', ( #113 ) ) ;
#233 = PERSON_AND_ORGANIZATION_ROLE ( 'classification_officer' ) ;
#234 = CARTESIAN_POINT ( 'NONE',  ( 4.189777606611760026E-14, 2.205000000000008509, 12.00000000000000000 ) ) ;
#235 = CARTESIAN_POINT ( 'NONE',  ( 0.0000000000000000000, 1.805000000000008598, 0.0000000000000000000 ) ) ;
#236 = CONICAL_SURFACE ( 'NONE', #25, 1.805000000000008598, 0.7853981633974497223 ) ;
#237 = PERSON_AND_ORGANIZATION ( #32, #59 ) ;
#238 = FACE_OUTER_BOUND ( 'NONE', #183, .T. ) ;
#239 = AXIS2_PLACEMENT_3D ( 'NONE', #21, #114, #173 ) ;
#240 = LOCAL_TIME ( 13, 56, 16.00000000000000000, #14 ) ;
#241 = EDGE_CURVE ( 'NONE', #197, #197, #6, .T. ) ;
#242 = CC_DESIGN_PERSON_AND_ORGANIZATION_ASSIGNMENT ( #12, #26, ( #36 ) ) ;
#243 = CARTESIAN_POINT ( 'NONE',  ( 4.189777606611760026E-14, -1.469576158976823947E-15, 12.00000000000000000 ) ) ;
ENDSEC;
END-ISO-10303-21;
