ISO-10303-21;
HEADER;
FILE_DESCRIPTION (( 'STEP AP203' ),
    '1' );
FILE_NAME ('321666.step',
    '2021-12-02T12:56:15',
    ( '' ),
    ( '' ),
    'SwSTEP 2.0',
    'SolidWorks 2019',
    '' );
FILE_SCHEMA (( 'CONFIG_CONTROL_DESIGN' ));
ENDSEC;

DATA;
#1 = CALENDAR_DATE ( 2021, 2, 12 ) ;
#2 = AXIS2_PLACEMENT_3D ( 'NONE', #233, #189, #130 ) ;
#3 = FACE_BOUND ( 'NONE', #64, .T. ) ;
#4 = DIRECTION ( 'NONE',  ( -3.491481338843133355E-15, 1.224646799147353207E-16, -1.000000000000000000 ) ) ;
#5 = APPLICATION_CONTEXT ( 'configuration controlled 3d designs of mechanical parts and assemblies' ) ;
#6 = CC_DESIGN_PERSON_AND_ORGANIZATION_ASSIGNMENT ( #175, #34, ( #227 ) ) ;
#7 = DIRECTION ( 'NONE',  ( 4.275831445896958607E-31, 1.000000000000000000, 1.224646799147353207E-16 ) ) ;
#8 = DATE_AND_TIME ( #84, #218 ) ;
#9 = ORIENTED_EDGE ( 'NONE', *, *, #45, .F. ) ;
#10 = DIRECTION ( 'NONE',  ( -3.491481338843133355E-15, 1.224646799147353207E-16, -1.000000000000000000 ) ) ;
#11 = CONICAL_SURFACE ( 'NONE', #166, 1.800000000000008926, 0.7853981633974498333 ) ;
#12 = EDGE_LOOP ( 'NONE', ( #234 ) ) ;
#13 = PERSON_AND_ORGANIZATION ( #201, #39 ) ;
#14 = DIRECTION ( 'NONE',  ( 0.0000000000000000000, 1.000000000000000000, 0.0000000000000000000 ) ) ;
#15 = EDGE_LOOP ( 'NONE', ( #108 ) ) ;
#16 = DIRECTION ( 'NONE',  ( -3.491481338843133355E-15, 1.224646799147353207E-16, -1.000000000000000000 ) ) ;
#17 = CC_DESIGN_PERSON_AND_ORGANIZATION_ASSIGNMENT ( #117, #73, ( #56 ) ) ;
#18 = AXIS2_PLACEMENT_3D ( 'NONE', #222, #68, #239 ) ;
#19 = PERSON_AND_ORGANIZATION ( #201, #39 ) ;
#20 =( LENGTH_UNIT ( ) NAMED_UNIT ( * ) SI_UNIT ( .MILLI., .METRE. ) );
#21 = DIRECTION ( 'NONE',  ( -3.491481338843133355E-15, 1.224646799147353207E-16, -1.000000000000000000 ) ) ;
#22 = APPLICATION_PROTOCOL_DEFINITION ( 'international standard', 'config_control_design', 1994, #164 ) ;
#23 =( NAMED_UNIT ( * ) SI_UNIT ( $, .STERADIAN. ) SOLID_ANGLE_UNIT ( ) );
#24 = CC_DESIGN_DATE_AND_TIME_ASSIGNMENT ( #8, #147, ( #227 ) ) ;
#25 = ORIENTED_EDGE ( 'NONE', *, *, #216, .T. ) ;
#26 = EDGE_LOOP ( 'NONE', ( #63 ) ) ;
#27 = LOCAL_TIME ( 13, 56, 15.00000000000000000, #221 ) ;
#28 = CYLINDRICAL_SURFACE ( 'NONE', #122, 2.200000000000009948 ) ;
#29 = ORIENTED_EDGE ( 'NONE', *, *, #142, .T. ) ;
#30 = DIRECTION ( 'NONE',  ( 4.275831445896958607E-31, 1.000000000000000000, 1.224646799147353207E-16 ) ) ;
#31 = APPROVAL_STATUS ( 'not_yet_approved' ) ;
#32 = ADVANCED_FACE ( 'NONE', ( #210, #46 ), #28, .T. ) ;
#33 = AXIS2_PLACEMENT_3D ( 'NONE', #162, #205, #74 ) ;
#34 = PERSON_AND_ORGANIZATION_ROLE ( 'creator' ) ;
#35 = APPROVAL_ROLE ( '' ) ;
#36 = AXIS2_PLACEMENT_3D ( 'NONE', #90, #161, #104 ) ;
#37 = DIRECTION ( 'NONE',  ( 3.491481338843133355E-15, -1.224646799147353207E-16, 1.000000000000000000 ) ) ;
#38 = VERTEX_POINT ( 'NONE', #42 ) ;
#39 = ORGANIZATION ( 'UNSPECIFIED', 'UNSPECIFIED', '' ) ;
#40 = FACE_OUTER_BOUND ( 'NONE', #15, .T. ) ;
#41 = ADVANCED_BREP_SHAPE_REPRESENTATION ( '321666', ( #219, #134, #18 ), #113 ) ;
#42 = CARTESIAN_POINT ( 'NONE',  ( 1.396592535537253737E-15, 2.200000000000009948, 0.4000000000000000777 ) ) ;
#43 = ORIENTED_EDGE ( 'NONE', *, *, #235, .F. ) ;
#44 = EDGE_LOOP ( 'NONE', ( #29 ) ) ;
#45 = EDGE_CURVE ( 'NONE', #102, #102, #212, .T. ) ;
#46 = FACE_OUTER_BOUND ( 'NONE', #150, .T. ) ;
#47 = EDGE_LOOP ( 'NONE', ( #9 ) ) ;
#48 = CLOSED_SHELL ( 'NONE', ( #32, #242, #196, #238 ) ) ;
#49 = APPROVAL_PERSON_ORGANIZATION ( #13, #190, #85 ) ;
#50 = PERSON_AND_ORGANIZATION_ROLE ( 'creator' ) ;
#51 = APPLICATION_PROTOCOL_DEFINITION ( 'international standard', 'config_control_design', 1994, #5 ) ;
#52 = LOCAL_TIME ( 13, 56, 15.00000000000000000, #114 ) ;
#53 = CARTESIAN_POINT ( 'NONE',  ( 2.779219145719134403E-13, 1.999999999999991340, 79.60000000000000853 ) ) ;
#54 = FACE_OUTER_BOUND ( 'NONE', #211, .T. ) ;
#55 = DIRECTION ( 'NONE',  ( 3.491481338843133355E-15, -1.224646799147353207E-16, 1.000000000000000000 ) ) ;
#56 = SECURITY_CLASSIFICATION ( '', '', #156 ) ;
#57 = CARTESIAN_POINT ( 'NONE',  ( 4.189777606611760026E-14, 1.649735760928049116E-32, 12.00000000000000000 ) ) ;
#58 = CARTESIAN_POINT ( 'NONE',  ( -3.848248301307281839E-31, 1.349783804395678689E-32, -1.102182119232623335E-16 ) ) ;
#59 = EDGE_LOOP ( 'NONE', ( #230 ) ) ;
#60 = CIRCLE ( 'NONE', #184, 1.600000000000000977 ) ;
#61 = DIRECTION ( 'NONE',  ( -3.491481338843133355E-15, 1.224646799147353207E-16, -1.000000000000000000 ) ) ;
#62 = EDGE_CURVE ( 'NONE', #103, #103, #160, .T. ) ;
#63 = ORIENTED_EDGE ( 'NONE', *, *, #216, .F. ) ;
#64 = EDGE_LOOP ( 'NONE', ( #43 ) ) ;
#65 = CARTESIAN_POINT ( 'NONE',  ( 2.793185071074506684E-13, -9.797174393178826052E-15, 80.00000000000000000 ) ) ;
#66 = PERSON_AND_ORGANIZATION ( #201, #39 ) ;
#67 = AXIS2_PLACEMENT_3D ( 'NONE', #107, #61, #14 ) ;
#68 = DIRECTION ( 'NONE',  ( 0.0000000000000000000, 0.0000000000000000000, 1.000000000000000000 ) ) ;
#69 = PRODUCT_RELATED_PRODUCT_CATEGORY ( 'detail', '', ( #78 ) ) ;
#70 = DATE_TIME_ROLE ( 'classification_date' ) ;
#71 = CIRCLE ( 'NONE', #87, 2.200000000000009948 ) ;
#72 = DIRECTION ( 'NONE',  ( -3.491481338843133355E-15, 1.224646799147353207E-16, -1.000000000000000000 ) ) ;
#73 = PERSON_AND_ORGANIZATION_ROLE ( 'classification_officer' ) ;
#74 = DIRECTION ( 'NONE',  ( 4.377113509970970909E-31, 1.000000000000000000, 1.232047923278976776E-16 ) ) ;
#75 = DIRECTION ( 'NONE',  ( 0.0000000000000000000, 1.000000000000000000, 0.0000000000000000000 ) ) ;
#76 = VERTEX_POINT ( 'NONE', #177 ) ;
#77 = ORIENTED_EDGE ( 'NONE', *, *, #45, .T. ) ;
#78 = PRODUCT ( '321666', '321666', '', ( #174 ) ) ;
#79 = CALENDAR_DATE ( 2021, 2, 12 ) ;
#80 = CC_DESIGN_SECURITY_CLASSIFICATION ( #56, ( #149 ) ) ;
#81 = CYLINDRICAL_SURFACE ( 'NONE', #82, 1.999999999999996669 ) ;
#82 = AXIS2_PLACEMENT_3D ( 'NONE', #112, #171, #30 ) ;
#83 = CARTESIAN_POINT ( 'NONE',  ( 4.189777606611760026E-14, -1.469576158976823947E-15, 12.00000000000000000 ) ) ;
#84 = CALENDAR_DATE ( 2021, 2, 12 ) ;
#85 = APPROVAL_ROLE ( '' ) ;
#86 = ADVANCED_FACE ( 'NONE', ( #151, #129 ), #202, .T. ) ;
#87 = AXIS2_PLACEMENT_3D ( 'NONE', #83, #16, #153 ) ;
#88 = ADVANCED_FACE ( 'NONE', ( #111, #97 ), #81, .T. ) ;
#89 = CIRCLE ( 'NONE', #101, 1.800000000000008926 ) ;
#90 = CARTESIAN_POINT ( 'NONE',  ( 4.189777606611760026E-14, -1.469576158976823947E-15, 12.00000000000000000 ) ) ;
#91 = PLANE ( 'NONE',  #128 ) ;
#92 = APPROVAL ( #118, 'UNSPECIFIED' ) ;
#93 = PLANE ( 'NONE',  #206 ) ;
#94 = EDGE_LOOP ( 'NONE', ( #77 ) ) ;
#95 = PRODUCT_DEFINITION_SHAPE ( 'NONE', 'NONE',  #227 ) ;
#96 = ORIENTED_EDGE ( 'NONE', *, *, #62, .T. ) ;
#97 = FACE_OUTER_BOUND ( 'NONE', #109, .T. ) ;
#98 = CARTESIAN_POINT ( 'NONE',  ( 4.189777606611760026E-14, 1.649735760928049116E-32, 12.00000000000000000 ) ) ;
#99 = CIRCLE ( 'NONE', #33, 2.200000000000009948 ) ;
#100 = COORDINATED_UNIVERSAL_TIME_OFFSET ( 1, 0, .AHEAD. ) ;
#101 = AXIS2_PLACEMENT_3D ( 'NONE', #199, #72, #119 ) ;
#102 = VERTEX_POINT ( 'NONE', #106 ) ;
#103 = VERTEX_POINT ( 'NONE', #120 ) ;
#104 = DIRECTION ( 'NONE',  ( 0.0000000000000000000, 1.000000000000000000, 0.0000000000000000000 ) ) ;
#105 = FACE_BOUND ( 'NONE', #94, .T. ) ;
#106 = CARTESIAN_POINT ( 'NONE',  ( 4.310726068062869035E-14, 1.999999999999990452, 12.34641016151380555 ) ) ;
#107 = CARTESIAN_POINT ( 'NONE',  ( 4.189777606611760026E-14, -1.469576158976823947E-15, 12.00000000000000000 ) ) ;
#108 = ORIENTED_EDGE ( 'NONE', *, *, #131, .F. ) ;
#109 = EDGE_LOOP ( 'NONE', ( #25 ) ) ;
#110 = CC_DESIGN_APPROVAL ( #92, ( #227 ) ) ;
#111 = FACE_OUTER_BOUND ( 'NONE', #47, .T. ) ;
#112 = CARTESIAN_POINT ( 'NONE',  ( 0.0000000000000000000, 0.0000000000000000000, 0.0000000000000000000 ) ) ;
#113 =( GEOMETRIC_REPRESENTATION_CONTEXT ( 3 ) GLOBAL_UNCERTAINTY_ASSIGNED_CONTEXT ( ( #180 ) ) GLOBAL_UNIT_ASSIGNED_CONTEXT ( ( #20, #225, #23 ) ) REPRESENTATION_CONTEXT ( 'NONE', 'WORKASPACE' ) );
#114 = COORDINATED_UNIVERSAL_TIME_OFFSET ( 1, 0, .AHEAD. ) ;
#115 = PERSON_AND_ORGANIZATION ( #201, #39 ) ;
#116 = CALENDAR_DATE ( 2021, 2, 12 ) ;
#117 = PERSON_AND_ORGANIZATION ( #201, #39 ) ;
#118 = APPROVAL_STATUS ( 'not_yet_approved' ) ;
#119 = DIRECTION ( 'NONE',  ( 4.275831445896958607E-31, 1.000000000000000000, 1.224646799147353207E-16 ) ) ;
#120 = CARTESIAN_POINT ( 'NONE',  ( 4.189777606611760026E-14, 2.200000000000008615, 12.00000000000000000 ) ) ;
#121 = CC_DESIGN_PERSON_AND_ORGANIZATION_ASSIGNMENT ( #19, #224, ( #78 ) ) ;
#122 = AXIS2_PLACEMENT_3D ( 'NONE', #169, #132, #127 ) ;
#123 = DIRECTION ( 'NONE',  ( 3.491481338843133355E-15, -1.224646799147353207E-16, 1.000000000000000000 ) ) ;
#124 = DIRECTION ( 'NONE',  ( -4.275831445896958607E-31, -1.000000000000000000, -1.224646799147353207E-16 ) ) ;
#125 = DIRECTION ( 'NONE',  ( -3.491481338843133355E-15, 1.224646799147353207E-16, -1.000000000000000000 ) ) ;
#126 = DESIGN_CONTEXT ( 'detailed design', #164, 'design' ) ;
#127 = DIRECTION ( 'NONE',  ( 4.275831445896958607E-31, 1.000000000000000000, 1.224646799147353454E-16 ) ) ;
#128 = AXIS2_PLACEMENT_3D ( 'NONE', #229, #4, #7 ) ;
#129 = FACE_BOUND ( 'NONE', #44, .T. ) ;
#130 = DIRECTION ( 'NONE',  ( 0.0000000000000000000, 1.000000000000000000, 0.0000000000000000000 ) ) ;
#131 = EDGE_CURVE ( 'NONE', #203, #203, #71, .T. ) ;
#132 = DIRECTION ( 'NONE',  ( -3.491481338843133355E-15, 1.224646799147353207E-16, -1.000000000000000000 ) ) ;
#133 = DIRECTION ( 'NONE',  ( 0.0000000000000000000, 1.000000000000000000, 0.0000000000000000000 ) ) ;
#134 = MANIFOLD_SOLID_BREP ( 'Corps-Déplacer/Copier1[2]', #48 ) ;
#135 = AXIS2_PLACEMENT_3D ( 'NONE', #57, #37, #124 ) ;
#136 = APPROVAL_DATE_TIME ( #193, #92 ) ;
#137 = DATE_AND_TIME ( #1, #152 ) ;
#138 = AXIS2_PLACEMENT_3D ( 'NONE', #98, #55, #223 ) ;
#139 = PERSON_AND_ORGANIZATION ( #201, #39 ) ;
#140 = FACE_OUTER_BOUND ( 'NONE', #12, .T. ) ;
#141 = DIRECTION ( 'NONE',  ( 4.275831445896958607E-31, 1.000000000000000000, 1.224646799147353207E-16 ) ) ;
#142 = EDGE_CURVE ( 'NONE', #76, #76, #60, .T. ) ;
#143 = DIRECTION ( 'NONE',  ( -4.275831445896958607E-31, -1.000000000000000000, -1.224646799147353207E-16 ) ) ;
#144 = AXIS2_PLACEMENT_3D ( 'NONE', #168, #10, #231 ) ;
#145 = PLANE ( 'NONE',  #135 ) ;
#146 = CC_DESIGN_PERSON_AND_ORGANIZATION_ASSIGNMENT ( #158, #241, ( #149 ) ) ;
#147 = DATE_TIME_ROLE ( 'creation_date' ) ;
#148 = DATE_AND_TIME ( #79, #27 ) ;
#149 = PRODUCT_DEFINITION_FORMATION_WITH_SPECIFIED_SOURCE ( 'ANY', '', #78, .NOT_KNOWN. ) ;
#150 = EDGE_LOOP ( 'NONE', ( #207 ) ) ;
#151 = FACE_OUTER_BOUND ( 'NONE', #26, .T. ) ;
#152 = LOCAL_TIME ( 13, 56, 15.00000000000000000, #198 ) ;
#153 = DIRECTION ( 'NONE',  ( 0.0000000000000000000, 1.000000000000000000, 0.0000000000000000000 ) ) ;
#154 = ADVANCED_FACE ( 'NONE', ( #213 ), #191, .F. ) ;
#155 = APPROVAL_DATE_TIME ( #148, #190 ) ;
#156 = SECURITY_CLASSIFICATION_LEVEL ( 'unclassified' ) ;
#157 = CC_DESIGN_APPROVAL ( #190, ( #149 ) ) ;
#158 = PERSON_AND_ORGANIZATION ( #201, #39 ) ;
#159 = CARTESIAN_POINT ( 'NONE',  ( -7.696496602614563677E-31, 2.699567608791357379E-32, -2.204364238465246669E-16 ) ) ;
#160 = CIRCLE ( 'NONE', #67, 2.200000000000009948 ) ;
#161 = DIRECTION ( 'NONE',  ( -3.491481338843133355E-15, 1.224646799147353207E-16, -1.000000000000000000 ) ) ;
#162 = CARTESIAN_POINT ( 'NONE',  ( 1.396592535537252750E-15, -4.898587196589410610E-17, 0.3999999999999998002 ) ) ;
#163 = ORIENTED_EDGE ( 'NONE', *, *, #214, .T. ) ;
#164 = APPLICATION_CONTEXT ( 'configuration controlled 3d designs of mechanical parts and assemblies' ) ;
#165 = EDGE_LOOP ( 'NONE', ( #96 ) ) ;
#166 = AXIS2_PLACEMENT_3D ( 'NONE', #159, #123, #143 ) ;
#167 = APPROVAL ( #195, 'UNSPECIFIED' ) ;
#168 = CARTESIAN_POINT ( 'NONE',  ( 4.310726068062869035E-14, -1.511999168525823941E-15, 12.34641016151380555 ) ) ;
#169 = CARTESIAN_POINT ( 'NONE',  ( 0.0000000000000000000, 0.0000000000000000000, 0.0000000000000000000 ) ) ;
#170 = CC_DESIGN_PERSON_AND_ORGANIZATION_ASSIGNMENT ( #66, #50, ( #149 ) ) ;
#171 = DIRECTION ( 'NONE',  ( -3.491481338843133355E-15, 1.224646799147353207E-16, -1.000000000000000000 ) ) ;
#172 = APPROVAL_ROLE ( '' ) ;
#173 = CIRCLE ( 'NONE', #194, 2.000000000000000888 ) ;
#174 = MECHANICAL_CONTEXT ( 'NONE', #5, 'mechanical' ) ;
#175 = PERSON_AND_ORGANIZATION ( #201, #39 ) ;
#176 = DATE_AND_TIME ( #217, #188 ) ;
#177 = CARTESIAN_POINT ( 'NONE',  ( 2.793185071074506684E-13, 1.599999999999991207, 80.00000000000000000 ) ) ;
#178 = CLOSED_SHELL ( 'NONE', ( #154, #186, #88, #86, #204 ) ) ;
#179 = CC_DESIGN_APPROVAL ( #167, ( #56 ) ) ;
#180 = UNCERTAINTY_MEASURE_WITH_UNIT (LENGTH_MEASURE( 1.000000000000000082E-05 ), #20, 'distance_accuracy_value', 'NONE');
#181 = VERTEX_POINT ( 'NONE', #183 ) ;
#182 = CARTESIAN_POINT ( 'NONE',  ( 2.779219145719134403E-13, -9.748188521212932624E-15, 79.60000000000000853 ) ) ;
#183 = CARTESIAN_POINT ( 'NONE',  ( 0.0000000000000000000, 1.800000000000008926, 0.0000000000000000000 ) ) ;
#184 = AXIS2_PLACEMENT_3D ( 'NONE', #65, #237, #133 ) ;
#185 = ORIENTED_EDGE ( 'NONE', *, *, #142, .F. ) ;
#186 = ADVANCED_FACE ( 'NONE', ( #105, #40 ), #240, .T. ) ;
#187 = EDGE_LOOP ( 'NONE', ( #232 ) ) ;
#188 = LOCAL_TIME ( 13, 56, 15.00000000000000000, #100 ) ;
#189 = DIRECTION ( 'NONE',  ( -3.491481338843133355E-15, 1.224646799147353207E-16, -1.000000000000000000 ) ) ;
#190 = APPROVAL ( #31, 'UNSPECIFIED' ) ;
#191 = PLANE ( 'NONE',  #138 ) ;
#192 = COORDINATED_UNIVERSAL_TIME_OFFSET ( 1, 0, .AHEAD. ) ;
#193 = DATE_AND_TIME ( #116, #52 ) ;
#194 = AXIS2_PLACEMENT_3D ( 'NONE', #182, #21, #75 ) ;
#195 = APPROVAL_STATUS ( 'not_yet_approved' ) ;
#196 = ADVANCED_FACE ( 'NONE', ( #243 ), #93, .T. ) ;
#197 = SHAPE_DEFINITION_REPRESENTATION ( #95, #41 ) ;
#198 = COORDINATED_UNIVERSAL_TIME_OFFSET ( 1, 0, .AHEAD. ) ;
#199 = CARTESIAN_POINT ( 'NONE',  ( -7.696496602614563677E-31, 2.699567608791357379E-32, -2.204364238465246669E-16 ) ) ;
#200 = VERTEX_POINT ( 'NONE', #53 ) ;
#201 = PERSON ( 'UNSPECIFIED', 'UNSPECIFIED', 'UNSPECIFIED', ('UNSPECIFIED'), ('UNSPECIFIED'), ('UNSPECIFIED') ) ;
#202 = CONICAL_SURFACE ( 'NONE', #2, 1.600000000000000977, 0.7853981633974512766 ) ;
#203 = VERTEX_POINT ( 'NONE', #220 ) ;
#204 = ADVANCED_FACE ( 'NONE', ( #54 ), #91, .F. ) ;
#205 = DIRECTION ( 'NONE',  ( -3.491481338843133355E-15, 1.224646799147353207E-16, -1.000000000000000000 ) ) ;
#206 = AXIS2_PLACEMENT_3D ( 'NONE', #58, #125, #141 ) ;
#207 = ORIENTED_EDGE ( 'NONE', *, *, #214, .F. ) ;
#208 = CC_DESIGN_DATE_AND_TIME_ASSIGNMENT ( #137, #70, ( #56 ) ) ;
#209 = EDGE_LOOP ( 'NONE', ( #163 ) ) ;
#210 = FACE_OUTER_BOUND ( 'NONE', #165, .T. ) ;
#211 = EDGE_LOOP ( 'NONE', ( #185 ) ) ;
#212 = CIRCLE ( 'NONE', #144, 1.999999999999991784 ) ;
#213 = FACE_OUTER_BOUND ( 'NONE', #187, .T. ) ;
#214 = EDGE_CURVE ( 'NONE', #38, #38, #99, .T. ) ;
#215 = APPROVAL_DATE_TIME ( #176, #167 ) ;
#216 = EDGE_CURVE ( 'NONE', #200, #200, #173, .T. ) ;
#217 = CALENDAR_DATE ( 2021, 2, 12 ) ;
#218 = LOCAL_TIME ( 13, 56, 15.00000000000000000, #192 ) ;
#219 = MANIFOLD_SOLID_BREP ( 'Corps-Déplacer/Copier1[1]', #178 ) ;
#220 = CARTESIAN_POINT ( 'NONE',  ( 4.189777606611760026E-14, 2.200000000000008615, 12.00000000000000000 ) ) ;
#221 = COORDINATED_UNIVERSAL_TIME_OFFSET ( 1, 0, .AHEAD. ) ;
#222 = CARTESIAN_POINT ( 'NONE',  ( 0.0000000000000000000, 0.0000000000000000000, 0.0000000000000000000 ) ) ;
#223 = DIRECTION ( 'NONE',  ( -4.275831445896958607E-31, -1.000000000000000000, -1.224646799147353207E-16 ) ) ;
#224 = PERSON_AND_ORGANIZATION_ROLE ( 'design_owner' ) ;
#225 =( NAMED_UNIT ( * ) PLANE_ANGLE_UNIT ( ) SI_UNIT ( $, .RADIAN. ) );
#226 = APPROVAL_PERSON_ORGANIZATION ( #139, #92, #172 ) ;
#227 = PRODUCT_DEFINITION ( 'UNKNOWN', '', #149, #126 ) ;
#228 = FACE_OUTER_BOUND ( 'NONE', #209, .T. ) ;
#229 = CARTESIAN_POINT ( 'NONE',  ( 2.793185071074506684E-13, 1.199807826129472128E-32, 80.00000000000000000 ) ) ;
#230 = ORIENTED_EDGE ( 'NONE', *, *, #235, .T. ) ;
#231 = DIRECTION ( 'NONE',  ( 0.0000000000000000000, 1.000000000000000000, 0.0000000000000000000 ) ) ;
#232 = ORIENTED_EDGE ( 'NONE', *, *, #131, .T. ) ;
#233 = CARTESIAN_POINT ( 'NONE',  ( 2.793185071074506684E-13, -9.797174393178826052E-15, 80.00000000000000000 ) ) ;
#234 = ORIENTED_EDGE ( 'NONE', *, *, #62, .F. ) ;
#235 = EDGE_CURVE ( 'NONE', #181, #181, #89, .T. ) ;
#236 = APPROVAL_PERSON_ORGANIZATION ( #115, #167, #35 ) ;
#237 = DIRECTION ( 'NONE',  ( -3.491481338843133355E-15, 1.224646799147353207E-16, -1.000000000000000000 ) ) ;
#238 = ADVANCED_FACE ( 'NONE', ( #228, #3 ), #11, .T. ) ;
#239 = DIRECTION ( 'NONE',  ( 1.000000000000000000, 0.0000000000000000000, 0.0000000000000000000 ) ) ;
#240 = CONICAL_SURFACE ( 'NONE', #36, 2.200000000000009948, 0.5235987755983005920 ) ;
#241 = PERSON_AND_ORGANIZATION_ROLE ( 'design_supplier' ) ;
#242 = ADVANCED_FACE ( 'NONE', ( #140 ), #145, .T. ) ;
#243 = FACE_OUTER_BOUND ( 'NONE', #59, .T. ) ;
ENDSEC;
END-ISO-10303-21;
