ISO-10303-21;
HEADER;
FILE_DESCRIPTION (( 'STEP AP203' ),
    '1' );
FILE_NAME ('321665.step',
    '2021-12-02T12:56:14',
    ( '' ),
    ( '' ),
    'SwSTEP 2.0',
    'SolidWorks 2019',
    '' );
FILE_SCHEMA (( 'CONFIG_CONTROL_DESIGN' ));
ENDSEC;

DATA;
#1 = DIRECTION ( 'NONE',  ( 4.275831445896958607E-31, 1.000000000000000000, 1.224646799147353207E-16 ) ) ;
#2 = CYLINDRICAL_SURFACE ( 'NONE', #208, 2.195000000000010054 ) ;
#3 = PLANE ( 'NONE',  #205 ) ;
#4 = DIRECTION ( 'NONE',  ( -3.491481338843133355E-15, 1.224646799147353207E-16, -1.000000000000000000 ) ) ;
#5 = PERSON_AND_ORGANIZATION_ROLE ( 'design_supplier' ) ;
#6 = AXIS2_PLACEMENT_3D ( 'NONE', #184, #48, #141 ) ;
#7 = CC_DESIGN_APPROVAL ( #85, ( #218 ) ) ;
#8 =( NAMED_UNIT ( * ) PLANE_ANGLE_UNIT ( ) SI_UNIT ( $, .RADIAN. ) );
#9 = AXIS2_PLACEMENT_3D ( 'NONE', #189, #4, #25 ) ;
#10 = APPLICATION_CONTEXT ( 'configuration controlled 3d designs of mechanical parts and assemblies' ) ;
#11 = EDGE_CURVE ( 'NONE', #243, #243, #53, .T. ) ;
#12 = PERSON_AND_ORGANIZATION ( #206, #114 ) ;
#13 = COORDINATED_UNIVERSAL_TIME_OFFSET ( 1, 0, .AHEAD. ) ;
#14 = CC_DESIGN_SECURITY_CLASSIFICATION ( #218, ( #38 ) ) ;
#15 = PRODUCT_DEFINITION_SHAPE ( 'NONE', 'NONE',  #222 ) ;
#16 = EDGE_LOOP ( 'NONE', ( #169 ) ) ;
#17 = AXIS2_PLACEMENT_3D ( 'NONE', #46, #119, #19 ) ;
#18 = APPROVAL ( #29, 'UNSPECIFIED' ) ;
#19 = DIRECTION ( 'NONE',  ( -4.275831445896958607E-31, -1.000000000000000000, -1.224646799147352961E-16 ) ) ;
#20 = DIRECTION ( 'NONE',  ( 4.275831445896958607E-31, 1.000000000000000000, 1.224646799147353207E-16 ) ) ;
#21 = CIRCLE ( 'NONE', #37, 2.000000000000000888 ) ;
#22 = APPROVAL_PERSON_ORGANIZATION ( #197, #85, #219 ) ;
#23 = CARTESIAN_POINT ( 'NONE',  ( 4.307702356526590899E-14, -1.510938593287098897E-15, 12.33774990747596156 ) ) ;
#24 = DIRECTION ( 'NONE',  ( -4.275831445896958607E-31, -1.000000000000000000, -1.224646799147353207E-16 ) ) ;
#25 = DIRECTION ( 'NONE',  ( 0.0000000000000000000, 1.000000000000000000, 0.0000000000000000000 ) ) ;
#26 = CALENDAR_DATE ( 2021, 2, 12 ) ;
#27 = CALENDAR_DATE ( 2021, 2, 12 ) ;
#28 =( NAMED_UNIT ( * ) SI_UNIT ( $, .STERADIAN. ) SOLID_ANGLE_UNIT ( ) );
#29 = APPROVAL_STATUS ( 'not_yet_approved' ) ;
#30 = ADVANCED_FACE ( 'NONE', ( #54 ), #131, .T. ) ;
#31 = COORDINATED_UNIVERSAL_TIME_OFFSET ( 1, 0, .AHEAD. ) ;
#32 = DATE_AND_TIME ( #91, #43 ) ;
#33 = CONICAL_SURFACE ( 'NONE', #64, 2.195000000000010054, 0.5235987755983010361 ) ;
#34 = EDGE_LOOP ( 'NONE', ( #39 ) ) ;
#35 = EDGE_LOOP ( 'NONE', ( #56 ) ) ;
#36 = CARTESIAN_POINT ( 'NONE',  ( 4.189777606611760026E-14, 1.645986361471393897E-32, 12.00000000000000000 ) ) ;
#37 = AXIS2_PLACEMENT_3D ( 'NONE', #60, #61, #137 ) ;
#38 = PRODUCT_DEFINITION_FORMATION_WITH_SPECIFIED_SOURCE ( 'ANY', '', #153, .NOT_KNOWN. ) ;
#39 = ORIENTED_EDGE ( 'NONE', *, *, #213, .T. ) ;
#40 = VERTEX_POINT ( 'NONE', #113 ) ;
#41 = FACE_OUTER_BOUND ( 'NONE', #241, .T. ) ;
#42 = LOCAL_TIME ( 13, 56, 14.00000000000000000, #145 ) ;
#43 = LOCAL_TIME ( 13, 56, 14.00000000000000000, #13 ) ;
#44 = PLANE ( 'NONE',  #164 ) ;
#45 = FACE_OUTER_BOUND ( 'NONE', #200, .T. ) ;
#46 = CARTESIAN_POINT ( 'NONE',  ( -7.675117445385076336E-31, 2.692068809878046941E-32, -2.198241004469509300E-16 ) ) ;
#47 = COORDINATED_UNIVERSAL_TIME_OFFSET ( 1, 0, .AHEAD. ) ;
#48 = DIRECTION ( 'NONE',  ( 0.0000000000000000000, 0.0000000000000000000, 1.000000000000000000 ) ) ;
#49 = AXIS2_PLACEMENT_3D ( 'NONE', #155, #112, #235 ) ;
#50 = CARTESIAN_POINT ( 'NONE',  ( 2.779219145719134403E-13, 1.999999999999991340, 79.60000000000000853 ) ) ;
#51 = APPROVAL_DATE_TIME ( #144, #120 ) ;
#52 = CARTESIAN_POINT ( 'NONE',  ( 2.793185071074506684E-13, -9.797174393178826052E-15, 80.00000000000000000 ) ) ;
#53 = CIRCLE ( 'NONE', #49, 1.795000000000008589 ) ;
#54 = FACE_OUTER_BOUND ( 'NONE', #156, .T. ) ;
#55 = EDGE_CURVE ( 'NONE', #157, #157, #142, .T. ) ;
#56 = ORIENTED_EDGE ( 'NONE', *, *, #55, .F. ) ;
#57 = DIRECTION ( 'NONE',  ( -3.491481338843133355E-15, 1.224646799147353207E-16, -1.000000000000000000 ) ) ;
#58 = ADVANCED_FACE ( 'NONE', ( #188, #191 ), #115, .T. ) ;
#59 = CARTESIAN_POINT ( 'NONE',  ( 0.0000000000000000000, 0.0000000000000000000, 0.0000000000000000000 ) ) ;
#60 = CARTESIAN_POINT ( 'NONE',  ( 2.779219145719134403E-13, -9.748188521212932624E-15, 79.60000000000000853 ) ) ;
#61 = DIRECTION ( 'NONE',  ( -3.491481338843133355E-15, 1.224646799147353207E-16, -1.000000000000000000 ) ) ;
#62 = FACE_OUTER_BOUND ( 'NONE', #201, .T. ) ;
#63 = APPROVAL_DATE_TIME ( #84, #18 ) ;
#64 = AXIS2_PLACEMENT_3D ( 'NONE', #179, #162, #192 ) ;
#65 = DATE_AND_TIME ( #27, #71 ) ;
#66 = PERSON_AND_ORGANIZATION ( #206, #114 ) ;
#67 = APPLICATION_PROTOCOL_DEFINITION ( 'international standard', 'config_control_design', 1994, #242 ) ;
#68 = SHAPE_DEFINITION_REPRESENTATION ( #15, #78 ) ;
#69 = DIRECTION ( 'NONE',  ( -4.275831445896958607E-31, -1.000000000000000000, -1.224646799147353207E-16 ) ) ;
#70 = EDGE_LOOP ( 'NONE', ( #94 ) ) ;
#71 = LOCAL_TIME ( 13, 56, 14.00000000000000000, #31 ) ;
#72 = AXIS2_PLACEMENT_3D ( 'NONE', #100, #224, #173 ) ;
#73 = EDGE_CURVE ( 'NONE', #40, #40, #216, .T. ) ;
#74 = EDGE_LOOP ( 'NONE', ( #236 ) ) ;
#75 = CARTESIAN_POINT ( 'NONE',  ( 8.552847072295026068E-47, 1.795000000000008589, 0.0000000000000000000 ) ) ;
#76 = EDGE_CURVE ( 'NONE', #102, #102, #105, .T. ) ;
#77 = DIRECTION ( 'NONE',  ( 4.275831445896958607E-31, 1.000000000000000000, 1.224646799147353207E-16 ) ) ;
#78 = ADVANCED_BREP_SHAPE_REPRESENTATION ( '321665', ( #220, #151, #6 ), #133 ) ;
#79 = DIRECTION ( 'NONE',  ( -3.491481338843133355E-15, 1.224646799147353207E-16, -1.000000000000000000 ) ) ;
#80 = DIRECTION ( 'NONE',  ( 4.387084155779560260E-31, 1.000000000000000000, 1.234854410575739663E-16 ) ) ;
#81 = ADVANCED_FACE ( 'NONE', ( #95, #82 ), #33, .T. ) ;
#82 = FACE_OUTER_BOUND ( 'NONE', #109, .T. ) ;
#83 = SECURITY_CLASSIFICATION_LEVEL ( 'unclassified' ) ;
#84 = DATE_AND_TIME ( #26, #42 ) ;
#85 = APPROVAL ( #234, 'UNSPECIFIED' ) ;
#86 = CLOSED_SHELL ( 'NONE', ( #168, #30, #99, #217 ) ) ;
#87 = AXIS2_PLACEMENT_3D ( 'NONE', #52, #126, #159 ) ;
#88 = VERTEX_POINT ( 'NONE', #166 ) ;
#89 = CARTESIAN_POINT ( 'NONE',  ( 4.189777606611760026E-14, 2.195000000000008722, 12.00000000000000000 ) ) ;
#90 = APPROVAL_ROLE ( '' ) ;
#91 = CALENDAR_DATE ( 2021, 2, 12 ) ;
#92 = ORIENTED_EDGE ( 'NONE', *, *, #183, .T. ) ;
#93 = CC_DESIGN_DATE_AND_TIME_ASSIGNMENT ( #65, #215, ( #222 ) ) ;
#94 = ORIENTED_EDGE ( 'NONE', *, *, #55, .T. ) ;
#95 = FACE_BOUND ( 'NONE', #148, .T. ) ;
#96 = FACE_OUTER_BOUND ( 'NONE', #35, .T. ) ;
#97 = DIRECTION ( 'NONE',  ( -3.491481338843133355E-15, 1.224646799147353207E-16, -1.000000000000000000 ) ) ;
#98 = DIRECTION ( 'NONE',  ( -3.491481338843133355E-15, 1.224646799147353207E-16, -1.000000000000000000 ) ) ;
#99 = ADVANCED_FACE ( 'NONE', ( #62 ), #44, .T. ) ;
#100 = CARTESIAN_POINT ( 'NONE',  ( 2.793185071074506684E-13, 1.199807826129472128E-32, 80.00000000000000000 ) ) ;
#101 = AXIS2_PLACEMENT_3D ( 'NONE', #209, #139, #207 ) ;
#102 = VERTEX_POINT ( 'NONE', #194 ) ;
#103 = APPROVAL_ROLE ( '' ) ;
#104 = ADVANCED_FACE ( 'NONE', ( #172 ), #3, .F. ) ;
#105 = CIRCLE ( 'NONE', #152, 1.999999999999991784 ) ;
#106 = MECHANICAL_CONTEXT ( 'NONE', #10, 'mechanical' ) ;
#107 = DATE_AND_TIME ( #121, #161 ) ;
#108 = EDGE_LOOP ( 'NONE', ( #199 ) ) ;
#109 = EDGE_LOOP ( 'NONE', ( #154 ) ) ;
#110 = DIRECTION ( 'NONE',  ( 3.491481338843133355E-15, -1.224646799147353207E-16, 1.000000000000000000 ) ) ;
#111 = CC_DESIGN_PERSON_AND_ORGANIZATION_ASSIGNMENT ( #193, #180, ( #38 ) ) ;
#112 = DIRECTION ( 'NONE',  ( -3.491481338843133355E-15, 1.224646799147353207E-16, -1.000000000000000000 ) ) ;
#113 = CARTESIAN_POINT ( 'NONE',  ( 4.189777606611760026E-14, 2.195000000000008722, 12.00000000000000000 ) ) ;
#114 = ORGANIZATION ( 'UNSPECIFIED', 'UNSPECIFIED', '' ) ;
#115 = CYLINDRICAL_SURFACE ( 'NONE', #221, 1.999999999999996669 ) ;
#116 = DIRECTION ( 'NONE',  ( 3.491481338843133355E-15, -1.224646799147353207E-16, 1.000000000000000000 ) ) ;
#117 = CARTESIAN_POINT ( 'NONE',  ( -3.837558722692538168E-31, 1.346034404939023471E-32, -1.099120502234754650E-16 ) ) ;
#118 = DESIGN_CONTEXT ( 'detailed design', #242, 'design' ) ;
#119 = DIRECTION ( 'NONE',  ( 3.491481338843133355E-15, -1.224646799147353207E-16, 1.000000000000000000 ) ) ;
#120 = APPROVAL ( #214, 'UNSPECIFIED' ) ;
#121 = CALENDAR_DATE ( 2021, 2, 12 ) ;
#122 =( LENGTH_UNIT ( ) NAMED_UNIT ( * ) SI_UNIT ( .MILLI., .METRE. ) );
#123 = CLOSED_SHELL ( 'NONE', ( #104, #81, #58, #174, #129 ) ) ;
#124 = PERSON_AND_ORGANIZATION_ROLE ( 'creator' ) ;
#125 = DATE_TIME_ROLE ( 'classification_date' ) ;
#126 = DIRECTION ( 'NONE',  ( -3.491481338843133355E-15, 1.224646799147353207E-16, -1.000000000000000000 ) ) ;
#127 = AXIS2_PLACEMENT_3D ( 'NONE', #135, #57, #229 ) ;
#128 = LOCAL_TIME ( 13, 56, 14.00000000000000000, #167 ) ;
#129 = ADVANCED_FACE ( 'NONE', ( #96 ), #175, .F. ) ;
#130 = ORIENTED_EDGE ( 'NONE', *, *, #73, .F. ) ;
#131 = PLANE ( 'NONE',  #190 ) ;
#132 = PRODUCT_RELATED_PRODUCT_CATEGORY ( 'detail', '', ( #153 ) ) ;
#133 =( GEOMETRIC_REPRESENTATION_CONTEXT ( 3 ) GLOBAL_UNCERTAINTY_ASSIGNED_CONTEXT ( ( #228 ) ) GLOBAL_UNIT_ASSIGNED_CONTEXT ( ( #122, #8, #28 ) ) REPRESENTATION_CONTEXT ( 'NONE', 'WORKASPACE' ) );
#134 = EDGE_LOOP ( 'NONE', ( #239 ) ) ;
#135 = CARTESIAN_POINT ( 'NONE',  ( 2.793185071074506684E-13, -9.797174393178826052E-15, 80.00000000000000000 ) ) ;
#136 = DIRECTION ( 'NONE',  ( -3.491481338843133355E-15, 1.224646799147353207E-16, -1.000000000000000000 ) ) ;
#137 = DIRECTION ( 'NONE',  ( 0.0000000000000000000, 1.000000000000000000, 0.0000000000000000000 ) ) ;
#138 = DIRECTION ( 'NONE',  ( -3.491481338843133355E-15, 1.224646799147353207E-16, -1.000000000000000000 ) ) ;
#139 = DIRECTION ( 'NONE',  ( -3.491481338843133355E-15, 1.224646799147353207E-16, -1.000000000000000000 ) ) ;
#140 = EDGE_CURVE ( 'NONE', #88, #88, #232, .T. ) ;
#141 = DIRECTION ( 'NONE',  ( 1.000000000000000000, 0.0000000000000000000, 0.0000000000000000000 ) ) ;
#142 = CIRCLE ( 'NONE', #87, 1.600000000000000977 ) ;
#143 = PERSON_AND_ORGANIZATION ( #206, #114 ) ;
#144 = DATE_AND_TIME ( #147, #128 ) ;
#145 = COORDINATED_UNIVERSAL_TIME_OFFSET ( 1, 0, .AHEAD. ) ;
#146 = AXIS2_PLACEMENT_3D ( 'NONE', #204, #97, #80 ) ;
#147 = CALENDAR_DATE ( 2021, 2, 12 ) ;
#148 = EDGE_LOOP ( 'NONE', ( #202 ) ) ;
#149 = APPROVAL_PERSON_ORGANIZATION ( #181, #18, #103 ) ;
#150 = APPROVAL_PERSON_ORGANIZATION ( #12, #120, #90 ) ;
#151 = MANIFOLD_SOLID_BREP ( 'Corps-Déplacer/Copier1[2]', #86 ) ;
#152 = AXIS2_PLACEMENT_3D ( 'NONE', #23, #138, #176 ) ;
#153 = PRODUCT ( '321665', '321665', '', ( #106 ) ) ;
#154 = ORIENTED_EDGE ( 'NONE', *, *, #213, .F. ) ;
#155 = CARTESIAN_POINT ( 'NONE',  ( -7.675117445385076336E-31, 2.692068809878046941E-32, -2.198241004469509300E-16 ) ) ;
#156 = EDGE_LOOP ( 'NONE', ( #130 ) ) ;
#157 = VERTEX_POINT ( 'NONE', #203 ) ;
#158 = FACE_OUTER_BOUND ( 'NONE', #108, .T. ) ;
#159 = DIRECTION ( 'NONE',  ( 0.0000000000000000000, 1.000000000000000000, 0.0000000000000000000 ) ) ;
#160 = FACE_BOUND ( 'NONE', #70, .T. ) ;
#161 = LOCAL_TIME ( 13, 56, 14.00000000000000000, #47 ) ;
#162 = DIRECTION ( 'NONE',  ( -3.491481338843133355E-15, 1.224646799147353207E-16, -1.000000000000000000 ) ) ;
#163 = PERSON_AND_ORGANIZATION ( #206, #114 ) ;
#164 = AXIS2_PLACEMENT_3D ( 'NONE', #117, #136, #77 ) ;
#165 = VERTEX_POINT ( 'NONE', #89 ) ;
#166 = CARTESIAN_POINT ( 'NONE',  ( 1.396592535537254131E-15, 2.195000000000010054, 0.4000000000000001887 ) ) ;
#167 = COORDINATED_UNIVERSAL_TIME_OFFSET ( 1, 0, .AHEAD. ) ;
#168 = ADVANCED_FACE ( 'NONE', ( #158, #41 ), #2, .T. ) ;
#169 = ORIENTED_EDGE ( 'NONE', *, *, #11, .F. ) ;
#170 = CC_DESIGN_PERSON_AND_ORGANIZATION_ASSIGNMENT ( #212, #5, ( #38 ) ) ;
#171 = EDGE_LOOP ( 'NONE', ( #92 ) ) ;
#172 = FACE_OUTER_BOUND ( 'NONE', #34, .T. ) ;
#173 = DIRECTION ( 'NONE',  ( 4.275831445896958607E-31, 1.000000000000000000, 1.224646799147353207E-16 ) ) ;
#174 = ADVANCED_FACE ( 'NONE', ( #230, #160 ), #198, .T. ) ;
#175 = PLANE ( 'NONE',  #72 ) ;
#176 = DIRECTION ( 'NONE',  ( 0.0000000000000000000, 1.000000000000000000, 0.0000000000000000000 ) ) ;
#177 = CC_DESIGN_DATE_AND_TIME_ASSIGNMENT ( #107, #125, ( #218 ) ) ;
#178 = CIRCLE ( 'NONE', #101, 2.195000000000010054 ) ;
#179 = CARTESIAN_POINT ( 'NONE',  ( 4.189777606611760026E-14, -1.469576158976823947E-15, 12.00000000000000000 ) ) ;
#180 = PERSON_AND_ORGANIZATION_ROLE ( 'creator' ) ;
#181 = PERSON_AND_ORGANIZATION ( #206, #114 ) ;
#182 = CC_DESIGN_APPROVAL ( #18, ( #222 ) ) ;
#183 = EDGE_CURVE ( 'NONE', #195, #195, #21, .T. ) ;
#184 = CARTESIAN_POINT ( 'NONE',  ( 0.0000000000000000000, 0.0000000000000000000, 0.0000000000000000000 ) ) ;
#185 = APPROVAL_DATE_TIME ( #32, #85 ) ;
#186 = ORIENTED_EDGE ( 'NONE', *, *, #11, .T. ) ;
#187 = ORIENTED_EDGE ( 'NONE', *, *, #140, .F. ) ;
#188 = FACE_OUTER_BOUND ( 'NONE', #74, .T. ) ;
#189 = CARTESIAN_POINT ( 'NONE',  ( 4.189777606611760026E-14, -1.469576158976823947E-15, 12.00000000000000000 ) ) ;
#190 = AXIS2_PLACEMENT_3D ( 'NONE', #36, #110, #69 ) ;
#191 = FACE_OUTER_BOUND ( 'NONE', #171, .T. ) ;
#192 = DIRECTION ( 'NONE',  ( 0.0000000000000000000, 1.000000000000000000, 0.0000000000000000000 ) ) ;
#193 = PERSON_AND_ORGANIZATION ( #206, #114 ) ;
#194 = CARTESIAN_POINT ( 'NONE',  ( 4.307702356526590899E-14, 1.999999999999990452, 12.33774990747596156 ) ) ;
#195 = VERTEX_POINT ( 'NONE', #50 ) ;
#196 = APPLICATION_PROTOCOL_DEFINITION ( 'international standard', 'config_control_design', 1994, #10 ) ;
#197 = PERSON_AND_ORGANIZATION ( #206, #114 ) ;
#198 = CONICAL_SURFACE ( 'NONE', #127, 1.600000000000000977, 0.7853981633974512766 ) ;
#199 = ORIENTED_EDGE ( 'NONE', *, *, #73, .T. ) ;
#200 = EDGE_LOOP ( 'NONE', ( #223 ) ) ;
#201 = EDGE_LOOP ( 'NONE', ( #186 ) ) ;
#202 = ORIENTED_EDGE ( 'NONE', *, *, #76, .T. ) ;
#203 = CARTESIAN_POINT ( 'NONE',  ( 2.793185071074506684E-13, 1.599999999999991207, 80.00000000000000000 ) ) ;
#204 = CARTESIAN_POINT ( 'NONE',  ( 1.396592535537253145E-15, -4.898587196589411843E-17, 0.3999999999999999112 ) ) ;
#205 = AXIS2_PLACEMENT_3D ( 'NONE', #225, #116, #24 ) ;
#206 = PERSON ( 'UNSPECIFIED', 'UNSPECIFIED', 'UNSPECIFIED', ('UNSPECIFIED'), ('UNSPECIFIED'), ('UNSPECIFIED') ) ;
#207 = DIRECTION ( 'NONE',  ( 0.0000000000000000000, 1.000000000000000000, 0.0000000000000000000 ) ) ;
#208 = AXIS2_PLACEMENT_3D ( 'NONE', #226, #98, #1 ) ;
#209 = CARTESIAN_POINT ( 'NONE',  ( 4.189777606611760026E-14, -1.469576158976823947E-15, 12.00000000000000000 ) ) ;
#210 = CC_DESIGN_PERSON_AND_ORGANIZATION_ASSIGNMENT ( #143, #233, ( #153 ) ) ;
#211 = FACE_BOUND ( 'NONE', #16, .T. ) ;
#212 = PERSON_AND_ORGANIZATION ( #206, #114 ) ;
#213 = EDGE_CURVE ( 'NONE', #165, #165, #178, .T. ) ;
#214 = APPROVAL_STATUS ( 'not_yet_approved' ) ;
#215 = DATE_TIME_ROLE ( 'creation_date' ) ;
#216 = CIRCLE ( 'NONE', #9, 2.195000000000010054 ) ;
#217 = ADVANCED_FACE ( 'NONE', ( #45, #211 ), #227, .T. ) ;
#218 = SECURITY_CLASSIFICATION ( '', '', #83 ) ;
#219 = APPROVAL_ROLE ( '' ) ;
#220 = MANIFOLD_SOLID_BREP ( 'Corps-Déplacer/Copier1[1]', #123 ) ;
#221 = AXIS2_PLACEMENT_3D ( 'NONE', #59, #79, #20 ) ;
#222 = PRODUCT_DEFINITION ( 'UNKNOWN', '', #38, #118 ) ;
#223 = ORIENTED_EDGE ( 'NONE', *, *, #140, .T. ) ;
#224 = DIRECTION ( 'NONE',  ( -3.491481338843133355E-15, 1.224646799147353207E-16, -1.000000000000000000 ) ) ;
#225 = CARTESIAN_POINT ( 'NONE',  ( 4.189777606611760026E-14, 1.645986361471393897E-32, 12.00000000000000000 ) ) ;
#226 = CARTESIAN_POINT ( 'NONE',  ( 0.0000000000000000000, 0.0000000000000000000, 0.0000000000000000000 ) ) ;
#227 = CONICAL_SURFACE ( 'NONE', #17, 1.795000000000008589, 0.7853981633974497223 ) ;
#228 = UNCERTAINTY_MEASURE_WITH_UNIT (LENGTH_MEASURE( 1.000000000000000082E-05 ), #122, 'distance_accuracy_value', 'NONE');
#229 = DIRECTION ( 'NONE',  ( 0.0000000000000000000, 1.000000000000000000, 0.0000000000000000000 ) ) ;
#230 = FACE_OUTER_BOUND ( 'NONE', #134, .T. ) ;
#231 = PERSON_AND_ORGANIZATION_ROLE ( 'classification_officer' ) ;
#232 = CIRCLE ( 'NONE', #146, 2.195000000000010054 ) ;
#233 = PERSON_AND_ORGANIZATION_ROLE ( 'design_owner' ) ;
#234 = APPROVAL_STATUS ( 'not_yet_approved' ) ;
#235 = DIRECTION ( 'NONE',  ( 4.275831445896958607E-31, 1.000000000000000000, 1.224646799147352961E-16 ) ) ;
#236 = ORIENTED_EDGE ( 'NONE', *, *, #76, .F. ) ;
#237 = CC_DESIGN_PERSON_AND_ORGANIZATION_ASSIGNMENT ( #66, #124, ( #222 ) ) ;
#238 = CC_DESIGN_APPROVAL ( #120, ( #38 ) ) ;
#239 = ORIENTED_EDGE ( 'NONE', *, *, #183, .F. ) ;
#240 = CC_DESIGN_PERSON_AND_ORGANIZATION_ASSIGNMENT ( #163, #231, ( #218 ) ) ;
#241 = EDGE_LOOP ( 'NONE', ( #187 ) ) ;
#242 = APPLICATION_CONTEXT ( 'configuration controlled 3d designs of mechanical parts and assemblies' ) ;
#243 = VERTEX_POINT ( 'NONE', #75 ) ;
ENDSEC;
END-ISO-10303-21;
