ISO-10303-21;
HEADER;
FILE_DESCRIPTION (( 'STEP AP203' ),
    '1' );
FILE_NAME ('321664.step',
    '2021-12-02T12:56:13',
    ( '' ),
    ( '' ),
    'SwSTEP 2.0',
    'SolidWorks 2019',
    '' );
FILE_SCHEMA (( 'CONFIG_CONTROL_DESIGN' ));
ENDSEC;

DATA;
#1 = CC_DESIGN_APPROVAL ( #168, ( #237 ) ) ;
#2 = ADVANCED_FACE ( 'NONE', ( #12, #91 ), #76, .T. ) ;
#3 = DIRECTION ( 'NONE',  ( 0.0000000000000000000, 1.000000000000000000, 0.0000000000000000000 ) ) ;
#4 = APPROVAL_ROLE ( '' ) ;
#5 = DIRECTION ( 'NONE',  ( -3.491481338843133355E-15, 1.224646799147353207E-16, -1.000000000000000000 ) ) ;
#6 =( NAMED_UNIT ( * ) PLANE_ANGLE_UNIT ( ) SI_UNIT ( $, .RADIAN. ) );
#7 = FACE_OUTER_BOUND ( 'NONE', #238, .T. ) ;
#8 = CARTESIAN_POINT ( 'NONE',  ( 2.779219145719134403E-13, -9.748188521212932624E-15, 79.60000000000000853 ) ) ;
#9 = CC_DESIGN_PERSON_AND_ORGANIZATION_ASSIGNMENT ( #161, #235, ( #240 ) ) ;
#10 = EDGE_LOOP ( 'NONE', ( #34 ) ) ;
#11 = PERSON_AND_ORGANIZATION ( #47, #191 ) ;
#12 = FACE_OUTER_BOUND ( 'NONE', #73, .T. ) ;
#13 = AXIS2_PLACEMENT_3D ( 'NONE', #99, #138, #85 ) ;
#14 = VERTEX_POINT ( 'NONE', #242 ) ;
#15 = CC_DESIGN_PERSON_AND_ORGANIZATION_ASSIGNMENT ( #137, #125, ( #237 ) ) ;
#16 = FACE_BOUND ( 'NONE', #148, .T. ) ;
#17 = AXIS2_PLACEMENT_3D ( 'NONE', #202, #113, #141 ) ;
#18 = EDGE_CURVE ( 'NONE', #178, #178, #236, .T. ) ;
#19 = CC_DESIGN_DATE_AND_TIME_ASSIGNMENT ( #214, #122, ( #78 ) ) ;
#20 = ADVANCED_BREP_SHAPE_REPRESENTATION ( '321664', ( #218, #145, #170 ), #75 ) ;
#21 = DIRECTION ( 'NONE',  ( -3.491481338843133355E-15, 1.224646799147353207E-16, -1.000000000000000000 ) ) ;
#22 = ADVANCED_FACE ( 'NONE', ( #134, #16 ), #147, .T. ) ;
#23 = CARTESIAN_POINT ( 'NONE',  ( 2.779219145719134403E-13, 1.999999999999991340, 79.60000000000000853 ) ) ;
#24 = CIRCLE ( 'NONE', #114, 2.190000000000010161 ) ;
#25 = VERTEX_POINT ( 'NONE', #42 ) ;
#26 = CALENDAR_DATE ( 2021, 2, 12 ) ;
#27 = DIRECTION ( 'NONE',  ( 3.491481338843133355E-15, -1.224646799147353207E-16, 1.000000000000000000 ) ) ;
#28 = MECHANICAL_CONTEXT ( 'NONE', #153, 'mechanical' ) ;
#29 = FACE_BOUND ( 'NONE', #10, .T. ) ;
#30 =( LENGTH_UNIT ( ) NAMED_UNIT ( * ) SI_UNIT ( .MILLI., .METRE. ) );
#31 = CLOSED_SHELL ( 'NONE', ( #106, #180, #2, #22, #229 ) ) ;
#32 = DESIGN_CONTEXT ( 'detailed design', #216, 'design' ) ;
#33 = EDGE_LOOP ( 'NONE', ( #56 ) ) ;
#34 = ORIENTED_EDGE ( 'NONE', *, *, #194, .F. ) ;
#35 = APPROVAL ( #98, 'UNSPECIFIED' ) ;
#36 = ORIENTED_EDGE ( 'NONE', *, *, #18, .T. ) ;
#37 = CC_DESIGN_PERSON_AND_ORGANIZATION_ASSIGNMENT ( #11, #139, ( #182 ) ) ;
#38 = CONICAL_SURFACE ( 'NONE', #150, 2.190000000000010161, 0.5235987755983002589 ) ;
#39 = APPROVAL ( #142, 'UNSPECIFIED' ) ;
#40 = CC_DESIGN_APPROVAL ( #35, ( #240 ) ) ;
#41 = ADVANCED_FACE ( 'NONE', ( #227 ), #101, .T. ) ;
#42 = CARTESIAN_POINT ( 'NONE',  ( 1.396592535537253737E-15, 2.190000000000010161, 0.4000000000000000777 ) ) ;
#43 = DATE_AND_TIME ( #86, #110 ) ;
#44 = DIRECTION ( 'NONE',  ( -4.275831445896958607E-31, -1.000000000000000000, -1.224646799147353207E-16 ) ) ;
#45 = CIRCLE ( 'NONE', #217, 2.000000000000000888 ) ;
#46 = AXIS2_PLACEMENT_3D ( 'NONE', #232, #121, #87 ) ;
#47 = PERSON ( 'UNSPECIFIED', 'UNSPECIFIED', 'UNSPECIFIED', ('UNSPECIFIED'), ('UNSPECIFIED'), ('UNSPECIFIED') ) ;
#48 = DIRECTION ( 'NONE',  ( -4.275831445896958607E-31, -1.000000000000000000, -1.224646799147353207E-16 ) ) ;
#49 = APPLICATION_PROTOCOL_DEFINITION ( 'international standard', 'config_control_design', 1994, #216 ) ;
#50 = FACE_OUTER_BOUND ( 'NONE', #74, .T. ) ;
#51 = COORDINATED_UNIVERSAL_TIME_OFFSET ( 1, 0, .AHEAD. ) ;
#52 = DATE_AND_TIME ( #71, #187 ) ;
#53 = EDGE_LOOP ( 'NONE', ( #57 ) ) ;
#54 = EDGE_CURVE ( 'NONE', #25, #25, #154, .T. ) ;
#55 = ORIENTED_EDGE ( 'NONE', *, *, #111, .T. ) ;
#56 = ORIENTED_EDGE ( 'NONE', *, *, #54, .F. ) ;
#57 = ORIENTED_EDGE ( 'NONE', *, *, #67, .T. ) ;
#58 = EDGE_CURVE ( 'NONE', #117, #117, #80, .T. ) ;
#59 = VERTEX_POINT ( 'NONE', #82 ) ;
#60 = AXIS2_PLACEMENT_3D ( 'NONE', #151, #221, #185 ) ;
#61 = CARTESIAN_POINT ( 'NONE',  ( 1.396592535537252750E-15, -4.898587196589410610E-17, 0.3999999999999998002 ) ) ;
#62 = PERSON_AND_ORGANIZATION_ROLE ( 'creator' ) ;
#63 = FACE_OUTER_BOUND ( 'NONE', #105, .T. ) ;
#64 = PERSON_AND_ORGANIZATION_ROLE ( 'creator' ) ;
#65 = DIRECTION ( 'NONE',  ( 4.275831445896958607E-31, 1.000000000000000000, 1.224646799147353207E-16 ) ) ;
#66 = PERSON_AND_ORGANIZATION ( #47, #191 ) ;
#67 = EDGE_CURVE ( 'NONE', #176, #176, #45, .T. ) ;
#68 = FACE_OUTER_BOUND ( 'NONE', #219, .T. ) ;
#69 = COORDINATED_UNIVERSAL_TIME_OFFSET ( 1, 0, .AHEAD. ) ;
#70 = DIRECTION ( 'NONE',  ( 4.397100329651202949E-31, 1.000000000000000000, 1.237673712882990170E-16 ) ) ;
#71 = CALENDAR_DATE ( 2021, 2, 12 ) ;
#72 = AXIS2_PLACEMENT_3D ( 'NONE', #81, #171, #95 ) ;
#73 = EDGE_LOOP ( 'NONE', ( #108 ) ) ;
#74 = EDGE_LOOP ( 'NONE', ( #55 ) ) ;
#75 =( GEOMETRIC_REPRESENTATION_CONTEXT ( 3 ) GLOBAL_UNCERTAINTY_ASSIGNED_CONTEXT ( ( #84 ) ) GLOBAL_UNIT_ASSIGNED_CONTEXT ( ( #30, #6, #212 ) ) REPRESENTATION_CONTEXT ( 'NONE', 'WORKASPACE' ) );
#76 = CYLINDRICAL_SURFACE ( 'NONE', #173, 1.999999999999996669 ) ;
#77 = ADVANCED_FACE ( 'NONE', ( #50, #195 ), #177, .T. ) ;
#78 = PRODUCT_DEFINITION ( 'UNKNOWN', '', #240, #32 ) ;
#79 = CARTESIAN_POINT ( 'NONE',  ( 2.793185071074506684E-13, -9.797174393178826052E-15, 80.00000000000000000 ) ) ;
#80 = CIRCLE ( 'NONE', #152, 2.190000000000010161 ) ;
#81 = CARTESIAN_POINT ( 'NONE',  ( 0.0000000000000000000, 0.0000000000000000000, 0.0000000000000000000 ) ) ;
#82 = CARTESIAN_POINT ( 'NONE',  ( 0.0000000000000000000, 1.790000000000008917, 0.0000000000000000000 ) ) ;
#83 = FACE_OUTER_BOUND ( 'NONE', #107, .T. ) ;
#84 = UNCERTAINTY_MEASURE_WITH_UNIT (LENGTH_MEASURE( 1.000000000000000082E-05 ), #30, 'distance_accuracy_value', 'NONE');
#85 = DIRECTION ( 'NONE',  ( 4.275831445896958607E-31, 1.000000000000000000, 1.224646799147353207E-16 ) ) ;
#86 = CALENDAR_DATE ( 2021, 2, 12 ) ;
#87 = DIRECTION ( 'NONE',  ( 4.275831445896958607E-31, 1.000000000000000000, 1.224646799147353207E-16 ) ) ;
#88 = ORIENTED_EDGE ( 'NONE', *, *, #111, .F. ) ;
#89 = ADVANCED_FACE ( 'NONE', ( #68, #29 ), #120, .T. ) ;
#90 = DATE_AND_TIME ( #144, #181 ) ;
#91 = FACE_OUTER_BOUND ( 'NONE', #53, .T. ) ;
#92 = CALENDAR_DATE ( 2021, 2, 12 ) ;
#93 = CARTESIAN_POINT ( 'NONE',  ( 0.0000000000000000000, 0.0000000000000000000, 0.0000000000000000000 ) ) ;
#94 = AXIS2_PLACEMENT_3D ( 'NONE', #209, #27, #48 ) ;
#95 = DIRECTION ( 'NONE',  ( 4.275831445896958607E-31, 1.000000000000000000, 1.224646799147352961E-16 ) ) ;
#96 = CC_DESIGN_APPROVAL ( #39, ( #78 ) ) ;
#97 = VERTEX_POINT ( 'NONE', #183 ) ;
#98 = APPROVAL_STATUS ( 'not_yet_approved' ) ;
#99 = CARTESIAN_POINT ( 'NONE',  ( -3.826869144077797124E-31, 1.342285005482369347E-32, -1.096058885236886582E-16 ) ) ;
#100 = APPROVAL_DATE_TIME ( #90, #39 ) ;
#101 = PLANE ( 'NONE',  #94 ) ;
#102 = CARTESIAN_POINT ( 'NONE',  ( 2.793185071074506684E-13, 1.199807826129472128E-32, 80.00000000000000000 ) ) ;
#103 = DIRECTION ( 'NONE',  ( 0.0000000000000000000, 0.0000000000000000000, 1.000000000000000000 ) ) ;
#104 = APPROVAL_PERSON_ORGANIZATION ( #159, #39, #164 ) ;
#105 = EDGE_LOOP ( 'NONE', ( #200 ) ) ;
#106 = ADVANCED_FACE ( 'NONE', ( #7 ), #234, .F. ) ;
#107 = EDGE_LOOP ( 'NONE', ( #131 ) ) ;
#108 = ORIENTED_EDGE ( 'NONE', *, *, #18, .F. ) ;
#109 = AXIS2_PLACEMENT_3D ( 'NONE', #102, #21, #65 ) ;
#110 = LOCAL_TIME ( 13, 56, 13.00000000000000000, #51 ) ;
#111 = EDGE_CURVE ( 'NONE', #97, #97, #24, .T. ) ;
#112 = EDGE_LOOP ( 'NONE', ( #215 ) ) ;
#113 = DIRECTION ( 'NONE',  ( -3.491481338843133355E-15, 1.224646799147353207E-16, -1.000000000000000000 ) ) ;
#114 = AXIS2_PLACEMENT_3D ( 'NONE', #243, #188, #230 ) ;
#115 = DIRECTION ( 'NONE',  ( -3.491481338843133355E-15, 1.224646799147353207E-16, -1.000000000000000000 ) ) ;
#116 = PRODUCT_DEFINITION_SHAPE ( 'NONE', 'NONE',  #78 ) ;
#117 = VERTEX_POINT ( 'NONE', #158 ) ;
#118 = PERSON_AND_ORGANIZATION ( #47, #191 ) ;
#119 = ADVANCED_FACE ( 'NONE', ( #63 ), #157, .T. ) ;
#120 = CONICAL_SURFACE ( 'NONE', #123, 1.790000000000008917, 0.7853981633974498333 ) ;
#121 = DIRECTION ( 'NONE',  ( -3.491481338843133355E-15, 1.224646799147353207E-16, -1.000000000000000000 ) ) ;
#122 = DATE_TIME_ROLE ( 'creation_date' ) ;
#123 = AXIS2_PLACEMENT_3D ( 'NONE', #143, #163, #136 ) ;
#124 = DIRECTION ( 'NONE',  ( -3.491481338843133355E-15, 1.224646799147353207E-16, -1.000000000000000000 ) ) ;
#125 = PERSON_AND_ORGANIZATION_ROLE ( 'classification_officer' ) ;
#126 = DIRECTION ( 'NONE',  ( 0.0000000000000000000, 1.000000000000000000, 0.0000000000000000000 ) ) ;
#127 = APPROVAL_DATE_TIME ( #43, #35 ) ;
#128 = DATE_TIME_ROLE ( 'classification_date' ) ;
#129 = ORIENTED_EDGE ( 'NONE', *, *, #155, .T. ) ;
#130 = APPROVAL_DATE_TIME ( #133, #168 ) ;
#131 = ORIENTED_EDGE ( 'NONE', *, *, #58, .F. ) ;
#132 = EDGE_LOOP ( 'NONE', ( #88 ) ) ;
#133 = DATE_AND_TIME ( #92, #135 ) ;
#134 = FACE_OUTER_BOUND ( 'NONE', #199, .T. ) ;
#135 = LOCAL_TIME ( 13, 56, 13.00000000000000000, #149 ) ;
#136 = DIRECTION ( 'NONE',  ( -4.275831445896958607E-31, -1.000000000000000000, -1.224646799147353207E-16 ) ) ;
#137 = PERSON_AND_ORGANIZATION ( #47, #191 ) ;
#138 = DIRECTION ( 'NONE',  ( -3.491481338843133355E-15, 1.224646799147353207E-16, -1.000000000000000000 ) ) ;
#139 = PERSON_AND_ORGANIZATION_ROLE ( 'design_owner' ) ;
#140 = CIRCLE ( 'NONE', #46, 1.790000000000008917 ) ;
#141 = DIRECTION ( 'NONE',  ( 0.0000000000000000000, 1.000000000000000000, 0.0000000000000000000 ) ) ;
#142 = APPROVAL_STATUS ( 'not_yet_approved' ) ;
#143 = CARTESIAN_POINT ( 'NONE',  ( -7.653738288155594249E-31, 2.684570010964738693E-32, -2.192117770473773164E-16 ) ) ;
#144 = CALENDAR_DATE ( 2021, 2, 12 ) ;
#145 = MANIFOLD_SOLID_BREP ( 'Corps-Déplacer/Copier1[2]', #166 ) ;
#146 = DIRECTION ( 'NONE',  ( 3.491481338843133355E-15, -1.224646799147353207E-16, 1.000000000000000000 ) ) ;
#147 = CONICAL_SURFACE ( 'NONE', #17, 1.600000000000000977, 0.7853981633974512766 ) ;
#148 = EDGE_LOOP ( 'NONE', ( #129 ) ) ;
#149 = COORDINATED_UNIVERSAL_TIME_OFFSET ( 1, 0, .AHEAD. ) ;
#150 = AXIS2_PLACEMENT_3D ( 'NONE', #206, #115, #3 ) ;
#151 = CARTESIAN_POINT ( 'NONE',  ( 4.304678644990314657E-14, -1.509878018048374247E-15, 12.32908965343811758 ) ) ;
#152 = AXIS2_PLACEMENT_3D ( 'NONE', #189, #124, #156 ) ;
#153 = APPLICATION_CONTEXT ( 'configuration controlled 3d designs of mechanical parts and assemblies' ) ;
#154 = CIRCLE ( 'NONE', #186, 2.190000000000010161 ) ;
#155 = EDGE_CURVE ( 'NONE', #14, #14, #223, .T. ) ;
#156 = DIRECTION ( 'NONE',  ( 0.0000000000000000000, 1.000000000000000000, 0.0000000000000000000 ) ) ;
#157 = PLANE ( 'NONE',  #13 ) ;
#158 = CARTESIAN_POINT ( 'NONE',  ( 4.189777606611760026E-14, 2.190000000000008828, 12.00000000000000000 ) ) ;
#159 = PERSON_AND_ORGANIZATION ( #47, #191 ) ;
#160 = FACE_BOUND ( 'NONE', #165, .T. ) ;
#161 = PERSON_AND_ORGANIZATION ( #47, #191 ) ;
#162 = PRODUCT_RELATED_PRODUCT_CATEGORY ( 'detail', '', ( #182 ) ) ;
#163 = DIRECTION ( 'NONE',  ( 3.491481338843133355E-15, -1.224646799147353207E-16, 1.000000000000000000 ) ) ;
#164 = APPROVAL_ROLE ( '' ) ;
#165 = EDGE_LOOP ( 'NONE', ( #36 ) ) ;
#166 = CLOSED_SHELL ( 'NONE', ( #77, #41, #119, #89 ) ) ;
#167 = DIRECTION ( 'NONE',  ( -3.491481338843133355E-15, 1.224646799147353207E-16, -1.000000000000000000 ) ) ;
#168 = APPROVAL ( #175, 'UNSPECIFIED' ) ;
#169 = CC_DESIGN_DATE_AND_TIME_ASSIGNMENT ( #52, #128, ( #237 ) ) ;
#170 = AXIS2_PLACEMENT_3D ( 'NONE', #226, #103, #228 ) ;
#171 = DIRECTION ( 'NONE',  ( -3.491481338843133355E-15, 1.224646799147353207E-16, -1.000000000000000000 ) ) ;
#172 = AXIS2_PLACEMENT_3D ( 'NONE', #79, #213, #126 ) ;
#173 = AXIS2_PLACEMENT_3D ( 'NONE', #93, #167, #241 ) ;
#174 = DIRECTION ( 'NONE',  ( 0.0000000000000000000, 1.000000000000000000, 0.0000000000000000000 ) ) ;
#175 = APPROVAL_STATUS ( 'not_yet_approved' ) ;
#176 = VERTEX_POINT ( 'NONE', #23 ) ;
#177 = CYLINDRICAL_SURFACE ( 'NONE', #72, 2.190000000000010161 ) ;
#178 = VERTEX_POINT ( 'NONE', #225 ) ;
#179 = ORIENTED_EDGE ( 'NONE', *, *, #67, .F. ) ;
#180 = ADVANCED_FACE ( 'NONE', ( #160, #83 ), #38, .T. ) ;
#181 = LOCAL_TIME ( 13, 56, 13.00000000000000000, #69 ) ;
#183 = CARTESIAN_POINT ( 'NONE',  ( 4.189777606611760026E-14, 2.190000000000008828, 12.00000000000000000 ) ) ;
#182 = PRODUCT ( '321664', '321664', '', ( #28 ) ) ;
#184 = SHAPE_DEFINITION_REPRESENTATION ( #116, #20 ) ;
#185 = DIRECTION ( 'NONE',  ( 0.0000000000000000000, 1.000000000000000000, 0.0000000000000000000 ) ) ;
#186 = AXIS2_PLACEMENT_3D ( 'NONE', #61, #205, #70 ) ;
#187 = LOCAL_TIME ( 13, 56, 13.00000000000000000, #196 ) ;
#188 = DIRECTION ( 'NONE',  ( -3.491481338843133355E-15, 1.224646799147353207E-16, -1.000000000000000000 ) ) ;
#189 = CARTESIAN_POINT ( 'NONE',  ( 4.189777606611760026E-14, -1.469576158976823947E-15, 12.00000000000000000 ) ) ;
#190 = PERSON_AND_ORGANIZATION ( #47, #191 ) ;
#191 = ORGANIZATION ( 'UNSPECIFIED', 'UNSPECIFIED', '' ) ;
#192 = FACE_OUTER_BOUND ( 'NONE', #112, .T. ) ;
#193 = APPROVAL_ROLE ( '' ) ;
#194 = EDGE_CURVE ( 'NONE', #59, #59, #140, .T. ) ;
#195 = FACE_OUTER_BOUND ( 'NONE', #33, .T. ) ;
#196 = COORDINATED_UNIVERSAL_TIME_OFFSET ( 1, 0, .AHEAD. ) ;
#197 = PLANE ( 'NONE',  #109 ) ;
#198 = ORIENTED_EDGE ( 'NONE', *, *, #58, .T. ) ;
#199 = EDGE_LOOP ( 'NONE', ( #179 ) ) ;
#200 = ORIENTED_EDGE ( 'NONE', *, *, #194, .T. ) ;
#201 = CC_DESIGN_PERSON_AND_ORGANIZATION_ASSIGNMENT ( #190, #64, ( #78 ) ) ;
#202 = CARTESIAN_POINT ( 'NONE',  ( 2.793185071074506684E-13, -9.797174393178826052E-15, 80.00000000000000000 ) ) ;
#203 = AXIS2_PLACEMENT_3D ( 'NONE', #211, #146, #44 ) ;
#204 = APPROVAL_PERSON_ORGANIZATION ( #118, #168, #4 ) ;
#205 = DIRECTION ( 'NONE',  ( -3.491481338843133355E-15, 1.224646799147353207E-16, -1.000000000000000000 ) ) ;
#206 = CARTESIAN_POINT ( 'NONE',  ( 4.189777606611760026E-14, -1.469576158976823947E-15, 12.00000000000000000 ) ) ;
#207 = APPLICATION_PROTOCOL_DEFINITION ( 'international standard', 'config_control_design', 1994, #153 ) ;
#208 = APPROVAL_PERSON_ORGANIZATION ( #66, #35, #193 ) ;
#209 = CARTESIAN_POINT ( 'NONE',  ( 4.189777606611760026E-14, 1.642236962014739773E-32, 12.00000000000000000 ) ) ;
#210 = PERSON_AND_ORGANIZATION ( #47, #191 ) ;
#211 = CARTESIAN_POINT ( 'NONE',  ( 4.189777606611760026E-14, 1.642236962014739773E-32, 12.00000000000000000 ) ) ;
#212 =( NAMED_UNIT ( * ) SI_UNIT ( $, .STERADIAN. ) SOLID_ANGLE_UNIT ( ) );
#213 = DIRECTION ( 'NONE',  ( -3.491481338843133355E-15, 1.224646799147353207E-16, -1.000000000000000000 ) ) ;
#214 = DATE_AND_TIME ( #26, #224 ) ;
#215 = ORIENTED_EDGE ( 'NONE', *, *, #155, .F. ) ;
#216 = APPLICATION_CONTEXT ( 'configuration controlled 3d designs of mechanical parts and assemblies' ) ;
#217 = AXIS2_PLACEMENT_3D ( 'NONE', #8, #5, #174 ) ;
#218 = MANIFOLD_SOLID_BREP ( 'Corps-Déplacer/Copier1[1]', #31 ) ;
#219 = EDGE_LOOP ( 'NONE', ( #239 ) ) ;
#220 = CC_DESIGN_SECURITY_CLASSIFICATION ( #237, ( #240 ) ) ;
#221 = DIRECTION ( 'NONE',  ( -3.491481338843133355E-15, 1.224646799147353207E-16, -1.000000000000000000 ) ) ;
#222 = CC_DESIGN_PERSON_AND_ORGANIZATION_ASSIGNMENT ( #210, #62, ( #240 ) ) ;
#223 = CIRCLE ( 'NONE', #172, 1.600000000000000977 ) ;
#224 = LOCAL_TIME ( 13, 56, 13.00000000000000000, #231 ) ;
#225 = CARTESIAN_POINT ( 'NONE',  ( 4.304678644990314657E-14, 1.999999999999990452, 12.32908965343811758 ) ) ;
#226 = CARTESIAN_POINT ( 'NONE',  ( 0.0000000000000000000, 0.0000000000000000000, 0.0000000000000000000 ) ) ;
#227 = FACE_OUTER_BOUND ( 'NONE', #132, .T. ) ;
#228 = DIRECTION ( 'NONE',  ( 1.000000000000000000, 0.0000000000000000000, 0.0000000000000000000 ) ) ;
#229 = ADVANCED_FACE ( 'NONE', ( #192 ), #197, .F. ) ;
#230 = DIRECTION ( 'NONE',  ( 0.0000000000000000000, 1.000000000000000000, 0.0000000000000000000 ) ) ;
#231 = COORDINATED_UNIVERSAL_TIME_OFFSET ( 1, 0, .AHEAD. ) ;
#232 = CARTESIAN_POINT ( 'NONE',  ( -7.653738288155594249E-31, 2.684570010964738693E-32, -2.192117770473773164E-16 ) ) ;
#233 = SECURITY_CLASSIFICATION_LEVEL ( 'unclassified' ) ;
#234 = PLANE ( 'NONE',  #203 ) ;
#235 = PERSON_AND_ORGANIZATION_ROLE ( 'design_supplier' ) ;
#236 = CIRCLE ( 'NONE', #60, 1.999999999999991784 ) ;
#237 = SECURITY_CLASSIFICATION ( '', '', #233 ) ;
#238 = EDGE_LOOP ( 'NONE', ( #198 ) ) ;
#239 = ORIENTED_EDGE ( 'NONE', *, *, #54, .T. ) ;
#240 = PRODUCT_DEFINITION_FORMATION_WITH_SPECIFIED_SOURCE ( 'ANY', '', #182, .NOT_KNOWN. ) ;
#241 = DIRECTION ( 'NONE',  ( 4.275831445896958607E-31, 1.000000000000000000, 1.224646799147353207E-16 ) ) ;
#242 = CARTESIAN_POINT ( 'NONE',  ( 2.793185071074506684E-13, 1.599999999999991207, 80.00000000000000000 ) ) ;
#243 = CARTESIAN_POINT ( 'NONE',  ( 4.189777606611760026E-14, -1.469576158976823947E-15, 12.00000000000000000 ) ) ;
ENDSEC;
END-ISO-10303-21;
