ISO-10303-21;
HEADER;
FILE_DESCRIPTION (( 'STEP AP203' ),
    '1' );
FILE_NAME ('321663.step',
    '2021-12-02T12:56:13',
    ( '' ),
    ( '' ),
    'SwSTEP 2.0',
    'SolidWorks 2019',
    '' );
FILE_SCHEMA (( 'CONFIG_CONTROL_DESIGN' ));
ENDSEC;

DATA;
#1 = SECURITY_CLASSIFICATION ( '', '', #109 ) ;
#2 = VERTEX_POINT ( 'NONE', #22 ) ;
#3 = PERSON_AND_ORGANIZATION_ROLE ( 'design_owner' ) ;
#4 =( GEOMETRIC_REPRESENTATION_CONTEXT ( 3 ) GLOBAL_UNCERTAINTY_ASSIGNED_CONTEXT ( ( #107 ) ) GLOBAL_UNIT_ASSIGNED_CONTEXT ( ( #205, #206, #147 ) ) REPRESENTATION_CONTEXT ( 'NONE', 'WORKASPACE' ) );
#5 = ORIENTED_EDGE ( 'NONE', *, *, #112, .F. ) ;
#6 = PERSON_AND_ORGANIZATION ( #113, #106 ) ;
#7 = CYLINDRICAL_SURFACE ( 'NONE', #97, 2.185000000000009823 ) ;
#8 = ADVANCED_FACE ( 'NONE', ( #53 ), #203, .T. ) ;
#9 = CARTESIAN_POINT ( 'NONE',  ( 4.189777606611760026E-14, -1.469576158976823947E-15, 12.00000000000000000 ) ) ;
#10 = APPROVAL_STATUS ( 'not_yet_approved' ) ;
#11 = DIRECTION ( 'NONE',  ( -3.491481338843133355E-15, 1.224646799147353207E-16, -1.000000000000000000 ) ) ;
#12 = PLANE ( 'NONE',  #239 ) ;
#13 = DIRECTION ( 'NONE',  ( -3.491481338843133355E-15, 1.224646799147353207E-16, -1.000000000000000000 ) ) ;
#14 = AXIS2_PLACEMENT_3D ( 'NONE', #216, #191, #196 ) ;
#15 = DATE_AND_TIME ( #225, #164 ) ;
#16 = APPLICATION_CONTEXT ( 'configuration controlled 3d designs of mechanical parts and assemblies' ) ;
#17 = CC_DESIGN_PERSON_AND_ORGANIZATION_ASSIGNMENT ( #88, #187, ( #1 ) ) ;
#18 = CIRCLE ( 'NONE', #114, 2.185000000000009823 ) ;
#19 = ORIENTED_EDGE ( 'NONE', *, *, #141, .T. ) ;
#20 = VERTEX_POINT ( 'NONE', #73 ) ;
#21 = MECHANICAL_CONTEXT ( 'NONE', #16, 'mechanical' ) ;
#22 = CARTESIAN_POINT ( 'NONE',  ( 0.0000000000000000000, 1.785000000000008580, 0.0000000000000000000 ) ) ;
#23 = ADVANCED_FACE ( 'NONE', ( #193, #30 ), #7, .T. ) ;
#24 = APPROVAL_STATUS ( 'not_yet_approved' ) ;
#25 = DIRECTION ( 'NONE',  ( 0.0000000000000000000, 1.000000000000000000, 0.0000000000000000000 ) ) ;
#26 = FACE_OUTER_BOUND ( 'NONE', #110, .T. ) ;
#27 = FACE_OUTER_BOUND ( 'NONE', #84, .T. ) ;
#28 = CARTESIAN_POINT ( 'NONE',  ( 1.396592535537253145E-15, -4.898587196589411843E-17, 0.3999999999999999112 ) ) ;
#29 = AXIS2_PLACEMENT_3D ( 'NONE', #45, #57, #172 ) ;
#30 = FACE_OUTER_BOUND ( 'NONE', #108, .T. ) ;
#31 = VERTEX_POINT ( 'NONE', #52 ) ;
#32 = APPROVAL_PERSON_ORGANIZATION ( #104, #103, #176 ) ;
#33 = APPROVAL_STATUS ( 'not_yet_approved' ) ;
#34 = CALENDAR_DATE ( 2021, 2, 12 ) ;
#35 = MANIFOLD_SOLID_BREP ( 'Corps-Déplacer/Copier1[2]', #65 ) ;
#36 = PERSON_AND_ORGANIZATION_ROLE ( 'design_supplier' ) ;
#37 = DIRECTION ( 'NONE',  ( 0.0000000000000000000, 0.0000000000000000000, 1.000000000000000000 ) ) ;
#38 = MANIFOLD_SOLID_BREP ( 'Corps-Déplacer/Copier1[1]', #142 ) ;
#39 = AXIS2_PLACEMENT_3D ( 'NONE', #178, #13, #101 ) ;
#40 = CARTESIAN_POINT ( 'NONE',  ( 0.0000000000000000000, 0.0000000000000000000, 0.0000000000000000000 ) ) ;
#41 = FACE_OUTER_BOUND ( 'NONE', #163, .T. ) ;
#42 = DIRECTION ( 'NONE',  ( 4.275831445896958607E-31, 1.000000000000000000, 1.224646799147353207E-16 ) ) ;
#43 = DIRECTION ( 'NONE',  ( -3.491481338843133355E-15, 1.224646799147353207E-16, -1.000000000000000000 ) ) ;
#44 = ADVANCED_FACE ( 'NONE', ( #41, #235 ), #179, .T. ) ;
#45 = CARTESIAN_POINT ( 'NONE',  ( 4.189777606611760026E-14, -1.469576158976823947E-15, 12.00000000000000000 ) ) ;
#46 = DESIGN_CONTEXT ( 'detailed design', #236, 'design' ) ;
#47 = LOCAL_TIME ( 13, 56, 13.00000000000000000, #219 ) ;
#48 = EDGE_LOOP ( 'NONE', ( #146 ) ) ;
#49 = EDGE_LOOP ( 'NONE', ( #241 ) ) ;
#50 = AXIS2_PLACEMENT_3D ( 'NONE', #28, #11, #189 ) ;
#51 = EDGE_LOOP ( 'NONE', ( #71 ) ) ;
#52 = CARTESIAN_POINT ( 'NONE',  ( 2.793185071074506684E-13, 1.599999999999991207, 80.00000000000000000 ) ) ;
#53 = FACE_OUTER_BOUND ( 'NONE', #186, .T. ) ;
#54 = DATE_AND_TIME ( #68, #47 ) ;
#55 = CC_DESIGN_DATE_AND_TIME_ASSIGNMENT ( #151, #228, ( #1 ) ) ;
#56 = FACE_OUTER_BOUND ( 'NONE', #182, .T. ) ;
#57 = DIRECTION ( 'NONE',  ( -3.491481338843133355E-15, 1.224646799147353207E-16, -1.000000000000000000 ) ) ;
#58 = CARTESIAN_POINT ( 'NONE',  ( 0.0000000000000000000, 0.0000000000000000000, 0.0000000000000000000 ) ) ;
#59 = SHAPE_DEFINITION_REPRESENTATION ( #177, #67 ) ;
#60 = FACE_OUTER_BOUND ( 'NONE', #144, .T. ) ;
#61 = PLANE ( 'NONE',  #62 ) ;
#62 = AXIS2_PLACEMENT_3D ( 'NONE', #229, #132, #208 ) ;
#63 = CARTESIAN_POINT ( 'NONE',  ( 2.779219145719134403E-13, 1.999999999999991340, 79.60000000000000853 ) ) ;
#64 = CC_DESIGN_PERSON_AND_ORGANIZATION_ASSIGNMENT ( #149, #3, ( #136 ) ) ;
#65 = CLOSED_SHELL ( 'NONE', ( #23, #8, #66, #194 ) ) ;
#66 = ADVANCED_FACE ( 'NONE', ( #26 ), #213, .T. ) ;
#67 = ADVANCED_BREP_SHAPE_REPRESENTATION ( '321663', ( #38, #35, #169 ), #4 ) ;
#68 = CALENDAR_DATE ( 2021, 2, 12 ) ;
#69 = LOCAL_TIME ( 13, 56, 13.00000000000000000, #168 ) ;
#70 = DATE_AND_TIME ( #34, #69 ) ;
#71 = ORIENTED_EDGE ( 'NONE', *, *, #153, .F. ) ;
#72 = EDGE_LOOP ( 'NONE', ( #218 ) ) ;
#73 = CARTESIAN_POINT ( 'NONE',  ( 4.301654933454036522E-14, 1.999999999999990452, 12.32042939940027182 ) ) ;
#74 = AXIS2_PLACEMENT_3D ( 'NONE', #152, #81, #99 ) ;
#75 = EDGE_LOOP ( 'NONE', ( #19 ) ) ;
#76 = COORDINATED_UNIVERSAL_TIME_OFFSET ( 1, 0, .AHEAD. ) ;
#77 = CARTESIAN_POINT ( 'NONE',  ( -7.632359130926107783E-31, 2.677071212051428256E-32, -2.185994536478035795E-16 ) ) ;
#78 = DIRECTION ( 'NONE',  ( 0.0000000000000000000, 1.000000000000000000, 0.0000000000000000000 ) ) ;
#79 = DIRECTION ( 'NONE',  ( 4.275831445896957731E-31, 1.000000000000000000, 1.224646799147353207E-16 ) ) ;
#80 = CARTESIAN_POINT ( 'NONE',  ( 4.189777606611760026E-14, -1.469576158976823947E-15, 12.00000000000000000 ) ) ;
#81 = DIRECTION ( 'NONE',  ( 3.491481338843133355E-15, -1.224646799147353207E-16, 1.000000000000000000 ) ) ;
#82 = CARTESIAN_POINT ( 'NONE',  ( 4.189777606611760026E-14, 2.185000000000008491, 12.00000000000000000 ) ) ;
#83 = CONICAL_SURFACE ( 'NONE', #74, 1.785000000000008580, 0.7853981633974497223 ) ;
#84 = EDGE_LOOP ( 'NONE', ( #86 ) ) ;
#85 = APPROVAL_DATE_TIME ( #167, #185 ) ;
#86 = ORIENTED_EDGE ( 'NONE', *, *, #96, .F. ) ;
#87 = ADVANCED_FACE ( 'NONE', ( #94 ), #12, .F. ) ;
#88 = PERSON_AND_ORGANIZATION ( #113, #106 ) ;
#89 = CC_DESIGN_SECURITY_CLASSIFICATION ( #1, ( #122 ) ) ;
#90 = APPROVAL_DATE_TIME ( #54, #174 ) ;
#91 = AXIS2_PLACEMENT_3D ( 'NONE', #80, #157, #234 ) ;
#92 = ADVANCED_FACE ( 'NONE', ( #116, #27 ), #121, .T. ) ;
#93 = DIRECTION ( 'NONE',  ( -3.491481338843133355E-15, 1.224646799147353207E-16, -1.000000000000000000 ) ) ;
#94 = FACE_OUTER_BOUND ( 'NONE', #51, .T. ) ;
#95 = CARTESIAN_POINT ( 'NONE',  ( 2.793185071074506684E-13, 1.199807826129472128E-32, 80.00000000000000000 ) ) ;
#96 = EDGE_CURVE ( 'NONE', #238, #238, #18, .T. ) ;
#97 = AXIS2_PLACEMENT_3D ( 'NONE', #40, #156, #79 ) ;
#98 = CARTESIAN_POINT ( 'NONE',  ( 2.779219145719134403E-13, -9.748188521212932624E-15, 79.60000000000000853 ) ) ;
#99 = DIRECTION ( 'NONE',  ( -4.275831445896958607E-31, -1.000000000000000000, -1.224646799147353207E-16 ) ) ;
#100 = ADVANCED_FACE ( 'NONE', ( #60, #56 ), #115, .T. ) ;
#101 = DIRECTION ( 'NONE',  ( 0.0000000000000000000, 1.000000000000000000, 0.0000000000000000000 ) ) ;
#102 = DATE_TIME_ROLE ( 'creation_date' ) ;
#103 = APPROVAL ( #10, 'UNSPECIFIED' ) ;
#104 = PERSON_AND_ORGANIZATION ( #113, #106 ) ;
#105 = ORIENTED_EDGE ( 'NONE', *, *, #96, .T. ) ;
#106 = ORGANIZATION ( 'UNSPECIFIED', 'UNSPECIFIED', '' ) ;
#107 = UNCERTAINTY_MEASURE_WITH_UNIT (LENGTH_MEASURE( 1.000000000000000082E-05 ), #205, 'distance_accuracy_value', 'NONE');
#108 = EDGE_LOOP ( 'NONE', ( #5 ) ) ;
#109 = SECURITY_CLASSIFICATION_LEVEL ( 'unclassified' ) ;
#110 = EDGE_LOOP ( 'NONE', ( #148 ) ) ;
#111 = APPLICATION_PROTOCOL_DEFINITION ( 'international standard', 'config_control_design', 1994, #236 ) ;
#112 = EDGE_CURVE ( 'NONE', #160, #160, #161, .T. ) ;
#113 = PERSON ( 'UNSPECIFIED', 'UNSPECIFIED', 'UNSPECIFIED', ('UNSPECIFIED'), ('UNSPECIFIED'), ('UNSPECIFIED') ) ;
#114 = AXIS2_PLACEMENT_3D ( 'NONE', #9, #134, #233 ) ;
#115 = CYLINDRICAL_SURFACE ( 'NONE', #199, 1.999999999999996669 ) ;
#116 = FACE_BOUND ( 'NONE', #48, .T. ) ;
#117 = DIRECTION ( 'NONE',  ( 0.0000000000000000000, 1.000000000000000000, 0.0000000000000000000 ) ) ;
#118 = FACE_OUTER_BOUND ( 'NONE', #49, .T. ) ;
#119 = CARTESIAN_POINT ( 'NONE',  ( 1.396592535537254131E-15, 2.185000000000009823, 0.4000000000000001887 ) ) ;
#120 = EDGE_CURVE ( 'NONE', #197, #197, #138, .T. ) ;
#121 = CONICAL_SURFACE ( 'NONE', #29, 2.185000000000009823, 0.5235987755983009251 ) ;
#122 = PRODUCT_DEFINITION_FORMATION_WITH_SPECIFIED_SOURCE ( 'ANY', '', #136, .NOT_KNOWN. ) ;
#123 = EDGE_LOOP ( 'NONE', ( #105 ) ) ;
#124 = DIRECTION ( 'NONE',  ( 1.000000000000000000, 0.0000000000000000000, 0.0000000000000000000 ) ) ;
#125 = ORIENTED_EDGE ( 'NONE', *, *, #162, .F. ) ;
#126 = PERSON_AND_ORGANIZATION ( #113, #106 ) ;
#127 = EDGE_LOOP ( 'NONE', ( #125 ) ) ;
#128 = APPROVAL_ROLE ( '' ) ;
#129 = AXIS2_PLACEMENT_3D ( 'NONE', #210, #175, #117 ) ;
#130 = COORDINATED_UNIVERSAL_TIME_OFFSET ( 1, 0, .AHEAD. ) ;
#131 = CARTESIAN_POINT ( 'NONE',  ( 0.0000000000000000000, 0.0000000000000000000, 0.0000000000000000000 ) ) ;
#132 = DIRECTION ( 'NONE',  ( 3.491481338843133355E-15, -1.224646799147353207E-16, 1.000000000000000000 ) ) ;
#133 = LOCAL_TIME ( 13, 56, 13.00000000000000000, #76 ) ;
#134 = DIRECTION ( 'NONE',  ( -3.491481338843133355E-15, 1.224646799147353207E-16, -1.000000000000000000 ) ) ;
#135 = CARTESIAN_POINT ( 'NONE',  ( 4.189777606611760026E-14, 1.638487562558084828E-32, 12.00000000000000000 ) ) ;
#136 = PRODUCT ( '321663', '321663', '', ( #21 ) ) ;
#137 = CARTESIAN_POINT ( 'NONE',  ( 2.793185071074506684E-13, -9.797174393178826052E-15, 80.00000000000000000 ) ) ;
#138 = CIRCLE ( 'NONE', #222, 2.000000000000000888 ) ;
#139 = DIRECTION ( 'NONE',  ( -4.275831445896958607E-31, -1.000000000000000000, -1.224646799147353207E-16 ) ) ;
#140 = CARTESIAN_POINT ( 'NONE',  ( 4.189777606611760026E-14, 2.185000000000008491, 12.00000000000000000 ) ) ;
#141 = EDGE_CURVE ( 'NONE', #217, #217, #180, .T. ) ;
#142 = CLOSED_SHELL ( 'NONE', ( #232, #92, #100, #44, #87 ) ) ;
#143 = COORDINATED_UNIVERSAL_TIME_OFFSET ( 1, 0, .AHEAD. ) ;
#144 = EDGE_LOOP ( 'NONE', ( #220 ) ) ;
#145 = CIRCLE ( 'NONE', #195, 1.600000000000000977 ) ;
#146 = ORIENTED_EDGE ( 'NONE', *, *, #242, .T. ) ;
#147 =( NAMED_UNIT ( * ) SI_UNIT ( $, .STERADIAN. ) SOLID_ANGLE_UNIT ( ) );
#148 = ORIENTED_EDGE ( 'NONE', *, *, #162, .T. ) ;
#149 = PERSON_AND_ORGANIZATION ( #113, #106 ) ;
#150 = AXIS2_PLACEMENT_3D ( 'NONE', #77, #43, #170 ) ;
#151 = DATE_AND_TIME ( #183, #133 ) ;
#152 = CARTESIAN_POINT ( 'NONE',  ( -7.632359130926107783E-31, 2.677071212051428256E-32, -2.185994536478035795E-16 ) ) ;
#153 = EDGE_CURVE ( 'NONE', #31, #31, #145, .T. ) ;
#154 = FACE_BOUND ( 'NONE', #127, .T. ) ;
#155 = CC_DESIGN_APPROVAL ( #103, ( #1 ) ) ;
#156 = DIRECTION ( 'NONE',  ( -3.491481338843133355E-15, 1.224646799147353207E-16, -1.000000000000000000 ) ) ;
#157 = DIRECTION ( 'NONE',  ( -3.491481338843133355E-15, 1.224646799147353207E-16, -1.000000000000000000 ) ) ;
#158 = FACE_OUTER_BOUND ( 'NONE', #123, .T. ) ;
#159 = APPROVAL_PERSON_ORGANIZATION ( #188, #174, #181 ) ;
#160 = VERTEX_POINT ( 'NONE', #119 ) ;
#161 = CIRCLE ( 'NONE', #50, 2.185000000000009823 ) ;
#162 = EDGE_CURVE ( 'NONE', #2, #2, #190, .T. ) ;
#163 = EDGE_LOOP ( 'NONE', ( #223 ) ) ;
#164 = LOCAL_TIME ( 13, 56, 13.00000000000000000, #143 ) ;
#165 = PERSON_AND_ORGANIZATION_ROLE ( 'creator' ) ;
#166 = ORIENTED_EDGE ( 'NONE', *, *, #120, .T. ) ;
#167 = DATE_AND_TIME ( #201, #231 ) ;
#168 = COORDINATED_UNIVERSAL_TIME_OFFSET ( 1, 0, .AHEAD. ) ;
#169 = AXIS2_PLACEMENT_3D ( 'NONE', #131, #37, #124 ) ;
#170 = DIRECTION ( 'NONE',  ( 4.275831445896958607E-31, 1.000000000000000000, 1.224646799147353207E-16 ) ) ;
#171 = DIRECTION ( 'NONE',  ( -3.491481338843133355E-15, 1.224646799147353207E-16, -1.000000000000000000 ) ) ;
#172 = DIRECTION ( 'NONE',  ( 0.0000000000000000000, 1.000000000000000000, 0.0000000000000000000 ) ) ;
#173 = DIRECTION ( 'NONE',  ( -3.491481338843133355E-15, 1.224646799147353207E-16, -1.000000000000000000 ) ) ;
#174 = APPROVAL ( #24, 'UNSPECIFIED' ) ;
#175 = DIRECTION ( 'NONE',  ( -3.491481338843133355E-15, 1.224646799147353207E-16, -1.000000000000000000 ) ) ;
#176 = APPROVAL_ROLE ( '' ) ;
#177 = PRODUCT_DEFINITION_SHAPE ( 'NONE', 'NONE',  #198 ) ;
#178 = CARTESIAN_POINT ( 'NONE',  ( 4.301654933454036522E-14, -1.508817442809649203E-15, 12.32042939940027182 ) ) ;
#179 = CONICAL_SURFACE ( 'NONE', #129, 1.600000000000000977, 0.7853981633974512766 ) ;
#180 = CIRCLE ( 'NONE', #91, 2.185000000000009823 ) ;
#181 = APPROVAL_ROLE ( '' ) ;
#182 = EDGE_LOOP ( 'NONE', ( #166 ) ) ;
#183 = CALENDAR_DATE ( 2021, 2, 12 ) ;
#184 = CC_DESIGN_APPROVAL ( #185, ( #198 ) ) ;
#185 = APPROVAL ( #33, 'UNSPECIFIED' ) ;
#186 = EDGE_LOOP ( 'NONE', ( #226 ) ) ;
#187 = PERSON_AND_ORGANIZATION_ROLE ( 'classification_officer' ) ;
#188 = PERSON_AND_ORGANIZATION ( #113, #106 ) ;
#189 = DIRECTION ( 'NONE',  ( 4.407162344135531064E-31, 1.000000000000000000, 1.240505918175628710E-16 ) ) ;
#190 = CIRCLE ( 'NONE', #150, 1.785000000000008580 ) ;
#191 = DIRECTION ( 'NONE',  ( -3.491481338843133355E-15, 1.224646799147353207E-16, -1.000000000000000000 ) ) ;
#192 = DIRECTION ( 'NONE',  ( 3.491481338843133355E-15, -1.224646799147353207E-16, 1.000000000000000000 ) ) ;
#193 = FACE_OUTER_BOUND ( 'NONE', #75, .T. ) ;
#194 = ADVANCED_FACE ( 'NONE', ( #118, #154 ), #83, .T. ) ;
#195 = AXIS2_PLACEMENT_3D ( 'NONE', #137, #214, #25 ) ;
#196 = DIRECTION ( 'NONE',  ( 4.275831445896958607E-31, 1.000000000000000000, 1.224646799147353207E-16 ) ) ;
#197 = VERTEX_POINT ( 'NONE', #63 ) ;
#198 = PRODUCT_DEFINITION ( 'UNKNOWN', '', #122, #46 ) ;
#199 = AXIS2_PLACEMENT_3D ( 'NONE', #58, #171, #42 ) ;
#200 = CC_DESIGN_PERSON_AND_ORGANIZATION_ASSIGNMENT ( #204, #243, ( #198 ) ) ;
#201 = CALENDAR_DATE ( 2021, 2, 12 ) ;
#202 = AXIS2_PLACEMENT_3D ( 'NONE', #135, #192, #139 ) ;
#203 = PLANE ( 'NONE',  #202 ) ;
#204 = PERSON_AND_ORGANIZATION ( #113, #106 ) ;
#205 =( LENGTH_UNIT ( ) NAMED_UNIT ( * ) SI_UNIT ( .MILLI., .METRE. ) );
#206 =( NAMED_UNIT ( * ) PLANE_ANGLE_UNIT ( ) SI_UNIT ( $, .RADIAN. ) );
#207 = CC_DESIGN_DATE_AND_TIME_ASSIGNMENT ( #70, #102, ( #198 ) ) ;
#208 = DIRECTION ( 'NONE',  ( -4.275831445896958607E-31, -1.000000000000000000, -1.224646799147353207E-16 ) ) ;
#209 = CC_DESIGN_APPROVAL ( #174, ( #122 ) ) ;
#210 = CARTESIAN_POINT ( 'NONE',  ( 2.793185071074506684E-13, -9.797174393178826052E-15, 80.00000000000000000 ) ) ;
#211 = APPROVAL_DATE_TIME ( #15, #103 ) ;
#212 = PRODUCT_RELATED_PRODUCT_CATEGORY ( 'detail', '', ( #136 ) ) ;
#213 = PLANE ( 'NONE',  #14 ) ;
#214 = DIRECTION ( 'NONE',  ( -3.491481338843133355E-15, 1.224646799147353207E-16, -1.000000000000000000 ) ) ;
#215 = CIRCLE ( 'NONE', #39, 1.999999999999991784 ) ;
#216 = CARTESIAN_POINT ( 'NONE',  ( -3.816179565463053891E-31, 1.338535606025714128E-32, -1.092997268239017898E-16 ) ) ;
#217 = VERTEX_POINT ( 'NONE', #140 ) ;
#218 = ORIENTED_EDGE ( 'NONE', *, *, #153, .T. ) ;
#219 = COORDINATED_UNIVERSAL_TIME_OFFSET ( 1, 0, .AHEAD. ) ;
#220 = ORIENTED_EDGE ( 'NONE', *, *, #242, .F. ) ;
#221 = PERSON_AND_ORGANIZATION ( #113, #106 ) ;
#222 = AXIS2_PLACEMENT_3D ( 'NONE', #98, #173, #78 ) ;
#223 = ORIENTED_EDGE ( 'NONE', *, *, #120, .F. ) ;
#224 = APPLICATION_PROTOCOL_DEFINITION ( 'international standard', 'config_control_design', 1994, #16 ) ;
#225 = CALENDAR_DATE ( 2021, 2, 12 ) ;
#226 = ORIENTED_EDGE ( 'NONE', *, *, #141, .F. ) ;
#227 = CC_DESIGN_PERSON_AND_ORGANIZATION_ASSIGNMENT ( #221, #165, ( #122 ) ) ;
#228 = DATE_TIME_ROLE ( 'classification_date' ) ;
#229 = CARTESIAN_POINT ( 'NONE',  ( 4.189777606611760026E-14, 1.638487562558084828E-32, 12.00000000000000000 ) ) ;
#230 = DIRECTION ( 'NONE',  ( 4.275831445896958607E-31, 1.000000000000000000, 1.224646799147353207E-16 ) ) ;
#231 = LOCAL_TIME ( 13, 56, 13.00000000000000000, #130 ) ;
#232 = ADVANCED_FACE ( 'NONE', ( #158 ), #61, .F. ) ;
#233 = DIRECTION ( 'NONE',  ( 0.0000000000000000000, 1.000000000000000000, 0.0000000000000000000 ) ) ;
#234 = DIRECTION ( 'NONE',  ( 0.0000000000000000000, 1.000000000000000000, 0.0000000000000000000 ) ) ;
#235 = FACE_BOUND ( 'NONE', #72, .T. ) ;
#236 = APPLICATION_CONTEXT ( 'configuration controlled 3d designs of mechanical parts and assemblies' ) ;
#237 = APPROVAL_PERSON_ORGANIZATION ( #126, #185, #128 ) ;
#238 = VERTEX_POINT ( 'NONE', #82 ) ;
#239 = AXIS2_PLACEMENT_3D ( 'NONE', #95, #93, #230 ) ;
#240 = CC_DESIGN_PERSON_AND_ORGANIZATION_ASSIGNMENT ( #6, #36, ( #122 ) ) ;
#241 = ORIENTED_EDGE ( 'NONE', *, *, #112, .T. ) ;
#242 = EDGE_CURVE ( 'NONE', #20, #20, #215, .T. ) ;
#243 = PERSON_AND_ORGANIZATION_ROLE ( 'creator' ) ;
ENDSEC;
END-ISO-10303-21;
