ISO-10303-21;
HEADER;
FILE_DESCRIPTION (( 'STEP AP203' ),
    '1' );
FILE_NAME ('321662.step',
    '2021-12-02T12:56:12',
    ( '' ),
    ( '' ),
    'SwSTEP 2.0',
    'SolidWorks 2019',
    '' );
FILE_SCHEMA (( 'CONFIG_CONTROL_DESIGN' ));
ENDSEC;

DATA;
#1 = CALENDAR_DATE ( 2021, 2, 12 ) ;
#2 = CARTESIAN_POINT ( 'NONE',  ( 4.189777606611760026E-14, 2.180000000000008598, 12.00000000000000000 ) ) ;
#3 = VERTEX_POINT ( 'NONE', #97 ) ;
#4 = DESIGN_CONTEXT ( 'detailed design', #141, 'design' ) ;
#5 = PERSON_AND_ORGANIZATION_ROLE ( 'creator' ) ;
#6 = ADVANCED_FACE ( 'NONE', ( #32 ), #158, .T. ) ;
#7 = COORDINATED_UNIVERSAL_TIME_OFFSET ( 1, 0, .AHEAD. ) ;
#8 = CONICAL_SURFACE ( 'NONE', #64, 1.780000000000008686, 0.7853981633974498333 ) ;
#9 = DATE_AND_TIME ( #156, #85 ) ;
#10 = ORIENTED_EDGE ( 'NONE', *, *, #62, .F. ) ;
#11 = APPROVAL ( #195, 'UNSPECIFIED' ) ;
#12 = SECURITY_CLASSIFICATION_LEVEL ( 'unclassified' ) ;
#13 = ORIENTED_EDGE ( 'NONE', *, *, #180, .F. ) ;
#14 = ORIENTED_EDGE ( 'NONE', *, *, #62, .T. ) ;
#15 = SECURITY_CLASSIFICATION ( '', '', #12 ) ;
#16 = FACE_BOUND ( 'NONE', #140, .T. ) ;
#17 = DIRECTION ( 'NONE',  ( -3.491481338843133355E-15, 1.224646799147353207E-16, -1.000000000000000000 ) ) ;
#18 = DIRECTION ( 'NONE',  ( -3.491481338843133355E-15, 1.224646799147353207E-16, -1.000000000000000000 ) ) ;
#19 = CARTESIAN_POINT ( 'NONE',  ( 4.189777606611760026E-14, 1.634738163101430704E-32, 12.00000000000000000 ) ) ;
#20 = APPROVAL_DATE_TIME ( #116, #117 ) ;
#21 = CARTESIAN_POINT ( 'NONE',  ( 0.0000000000000000000, 0.0000000000000000000, 0.0000000000000000000 ) ) ;
#22 =( LENGTH_UNIT ( ) NAMED_UNIT ( * ) SI_UNIT ( .MILLI., .METRE. ) );
#23 = APPROVAL_STATUS ( 'not_yet_approved' ) ;
#24 = CARTESIAN_POINT ( 'NONE',  ( 0.0000000000000000000, 1.780000000000008686, 0.0000000000000000000 ) ) ;
#25 = ADVANCED_FACE ( 'NONE', ( #111 ), #35, .F. ) ;
#26 = CIRCLE ( 'NONE', #79, 1.780000000000008686 ) ;
#27 = ORGANIZATION ( 'UNSPECIFIED', 'UNSPECIFIED', '' ) ;
#28 = ORIENTED_EDGE ( 'NONE', *, *, #78, .T. ) ;
#29 = PERSON_AND_ORGANIZATION ( #179, #27 ) ;
#30 = AXIS2_PLACEMENT_3D ( 'NONE', #125, #147, #108 ) ;
#31 = EDGE_LOOP ( 'NONE', ( #14 ) ) ;
#32 = FACE_OUTER_BOUND ( 'NONE', #120, .T. ) ;
#33 = CC_DESIGN_DATE_AND_TIME_ASSIGNMENT ( #83, #112, ( #165 ) ) ;
#34 = CARTESIAN_POINT ( 'NONE',  ( 2.779219145719134403E-13, -9.748188521212932624E-15, 79.60000000000000853 ) ) ;
#35 = PLANE ( 'NONE',  #52 ) ;
#36 = PLANE ( 'NONE',  #149 ) ;
#37 = PLANE ( 'NONE',  #81 ) ;
#38 = AXIS2_PLACEMENT_3D ( 'NONE', #222, #240, #185 ) ;
#39 = LOCAL_TIME ( 13, 56, 12.00000000000000000, #115 ) ;
#40 = CARTESIAN_POINT ( 'NONE',  ( 2.793185071074506684E-13, 1.199807826129472128E-32, 80.00000000000000000 ) ) ;
#41 = MANIFOLD_SOLID_BREP ( 'Corps-Déplacer/Copier1[2]', #113 ) ;
#42 = CALENDAR_DATE ( 2021, 2, 12 ) ;
#43 = APPROVAL_ROLE ( '' ) ;
#44 = PERSON_AND_ORGANIZATION ( #179, #27 ) ;
#45 = PERSON_AND_ORGANIZATION ( #179, #27 ) ;
#46 = ADVANCED_FACE ( 'NONE', ( #89, #152 ), #216, .T. ) ;
#47 = ORIENTED_EDGE ( 'NONE', *, *, #214, .F. ) ;
#48 = CONICAL_SURFACE ( 'NONE', #105, 2.180000000000009930, 0.5235987755983001479 ) ;
#49 = EDGE_LOOP ( 'NONE', ( #235 ) ) ;
#50 = CC_DESIGN_DATE_AND_TIME_ASSIGNMENT ( #139, #178, ( #15 ) ) ;
#51 = CARTESIAN_POINT ( 'NONE',  ( 0.0000000000000000000, 0.0000000000000000000, 0.0000000000000000000 ) ) ;
#52 = AXIS2_PLACEMENT_3D ( 'NONE', #40, #202, #71 ) ;
#53 = DIRECTION ( 'NONE',  ( -3.491481338843133355E-15, 1.224646799147353207E-16, -1.000000000000000000 ) ) ;
#54 = FACE_OUTER_BOUND ( 'NONE', #49, .T. ) ;
#55 = DIRECTION ( 'NONE',  ( -3.491481338843133355E-15, 1.224646799147353207E-16, -1.000000000000000000 ) ) ;
#56 = FACE_OUTER_BOUND ( 'NONE', #146, .T. ) ;
#57 = VERTEX_POINT ( 'NONE', #2 ) ;
#58 = PRODUCT_RELATED_PRODUCT_CATEGORY ( 'detail', '', ( #157 ) ) ;
#59 = APPROVAL_DATE_TIME ( #77, #175 ) ;
#60 = APPROVAL_PERSON_ORGANIZATION ( #67, #11, #119 ) ;
#61 = CARTESIAN_POINT ( 'NONE',  ( 1.396592535537253737E-15, 2.180000000000009930, 0.4000000000000000777 ) ) ;
#62 = EDGE_CURVE ( 'NONE', #174, #174, #205, .T. ) ;
#63 = VERTEX_POINT ( 'NONE', #132 ) ;
#64 = AXIS2_PLACEMENT_3D ( 'NONE', #93, #75, #189 ) ;
#65 = ADVANCED_FACE ( 'NONE', ( #76, #207 ), #48, .T. ) ;
#66 = ORIENTED_EDGE ( 'NONE', *, *, #74, .T. ) ;
#67 = PERSON_AND_ORGANIZATION ( #179, #27 ) ;
#68 = CIRCLE ( 'NONE', #224, 2.180000000000009930 ) ;
#69 = EDGE_CURVE ( 'NONE', #80, #80, #190, .T. ) ;
#70 = CARTESIAN_POINT ( 'NONE',  ( -7.610979973696623945E-31, 2.669572413138120008E-32, -2.179871302482299659E-16 ) ) ;
#71 = DIRECTION ( 'NONE',  ( 4.275831445896958607E-31, 1.000000000000000000, 1.224646799147353207E-16 ) ) ;
#72 = DIRECTION ( 'NONE',  ( -4.275831445896958607E-31, -1.000000000000000000, -1.224646799147353207E-16 ) ) ;
#73 = AXIS2_PLACEMENT_3D ( 'NONE', #21, #95, #153 ) ;
#74 = EDGE_CURVE ( 'NONE', #3, #3, #196, .T. ) ;
#75 = DIRECTION ( 'NONE',  ( 3.491481338843133355E-15, -1.224646799147353207E-16, 1.000000000000000000 ) ) ;
#76 = FACE_BOUND ( 'NONE', #137, .T. ) ;
#77 = DATE_AND_TIME ( #1, #163 ) ;
#78 = EDGE_CURVE ( 'NONE', #225, #225, #168, .T. ) ;
#79 = AXIS2_PLACEMENT_3D ( 'NONE', #70, #127, #128 ) ;
#80 = VERTEX_POINT ( 'NONE', #61 ) ;
#81 = AXIS2_PLACEMENT_3D ( 'NONE', #109, #188, #171 ) ;
#82 = PRODUCT_DEFINITION_SHAPE ( 'NONE', 'NONE',  #165 ) ;
#83 = DATE_AND_TIME ( #42, #169 ) ;
#84 = CALENDAR_DATE ( 2021, 2, 12 ) ;
#85 = LOCAL_TIME ( 13, 56, 12.00000000000000000, #7 ) ;
#86 = SHAPE_DEFINITION_REPRESENTATION ( #82, #144 ) ;
#87 = ORIENTED_EDGE ( 'NONE', *, *, #69, .F. ) ;
#88 = FACE_OUTER_BOUND ( 'NONE', #160, .T. ) ;
#89 = FACE_OUTER_BOUND ( 'NONE', #215, .T. ) ;
#90 = CARTESIAN_POINT ( 'NONE',  ( 4.189777606611760026E-14, -1.469576158976823947E-15, 12.00000000000000000 ) ) ;
#91 = CC_DESIGN_PERSON_AND_ORGANIZATION_ASSIGNMENT ( #96, #5, ( #165 ) ) ;
#92 = DIRECTION ( 'NONE',  ( -3.491481338843133355E-15, 1.224646799147353207E-16, -1.000000000000000000 ) ) ;
#93 = CARTESIAN_POINT ( 'NONE',  ( -7.610979973696623945E-31, 2.669572413138120008E-32, -2.179871302482299659E-16 ) ) ;
#94 = VERTEX_POINT ( 'NONE', #24 ) ;
#95 = DIRECTION ( 'NONE',  ( 0.0000000000000000000, 0.0000000000000000000, 1.000000000000000000 ) ) ;
#96 = PERSON_AND_ORGANIZATION ( #179, #27 ) ;
#97 = CARTESIAN_POINT ( 'NONE',  ( 4.298631221917759017E-14, 1.999999999999990452, 12.31176914536242961 ) ) ;
#98 = CC_DESIGN_PERSON_AND_ORGANIZATION_ASSIGNMENT ( #29, #212, ( #161 ) ) ;
#99 =( NAMED_UNIT ( * ) PLANE_ANGLE_UNIT ( ) SI_UNIT ( $, .RADIAN. ) );
#100 = CC_DESIGN_APPROVAL ( #11, ( #15 ) ) ;
#101 = PERSON_AND_ORGANIZATION_ROLE ( 'creator' ) ;
#102 = ADVANCED_FACE ( 'NONE', ( #184, #201 ), #186, .T. ) ;
#103 = ORIENTED_EDGE ( 'NONE', *, *, #69, .T. ) ;
#104 = ORIENTED_EDGE ( 'NONE', *, *, #234, .T. ) ;
#105 = AXIS2_PLACEMENT_3D ( 'NONE', #148, #92, #237 ) ;
#106 = CARTESIAN_POINT ( 'NONE',  ( 4.298631221917759017E-14, -1.507756867570924159E-15, 12.31176914536242961 ) ) ;
#107 = DIRECTION ( 'NONE',  ( 3.491481338843133355E-15, -1.224646799147353207E-16, 1.000000000000000000 ) ) ;
#108 = DIRECTION ( 'NONE',  ( 4.417270514649603814E-31, 1.000000000000000000, 1.243351115235664677E-16 ) ) ;
#109 = CARTESIAN_POINT ( 'NONE',  ( 4.189777606611760026E-14, 1.634738163101430704E-32, 12.00000000000000000 ) ) ;
#110 = LOCAL_TIME ( 13, 56, 12.00000000000000000, #118 ) ;
#111 = FACE_OUTER_BOUND ( 'NONE', #232, .T. ) ;
#112 = DATE_TIME_ROLE ( 'creation_date' ) ;
#113 = CLOSED_SHELL ( 'NONE', ( #46, #6, #203, #133 ) ) ;
#114 = CARTESIAN_POINT ( 'NONE',  ( 2.793185071074506684E-13, 1.599999999999991207, 80.00000000000000000 ) ) ;
#115 = COORDINATED_UNIVERSAL_TIME_OFFSET ( 1, 0, .AHEAD. ) ;
#116 = DATE_AND_TIME ( #230, #39 ) ;
#117 = APPROVAL ( #210, 'UNSPECIFIED' ) ;
#118 = COORDINATED_UNIVERSAL_TIME_OFFSET ( 1, 0, .AHEAD. ) ;
#119 = APPROVAL_ROLE ( '' ) ;
#120 = EDGE_LOOP ( 'NONE', ( #143 ) ) ;
#121 = ORIENTED_EDGE ( 'NONE', *, *, #78, .F. ) ;
#122 = CIRCLE ( 'NONE', #187, 2.180000000000009930 ) ;
#123 = EDGE_LOOP ( 'NONE', ( #197 ) ) ;
#124 = ORIENTED_EDGE ( 'NONE', *, *, #180, .T. ) ;
#125 = CARTESIAN_POINT ( 'NONE',  ( 1.396592535537252750E-15, -4.898587196589410610E-17, 0.3999999999999998002 ) ) ;
#126 = DIRECTION ( 'NONE',  ( 0.0000000000000000000, 1.000000000000000000, 0.0000000000000000000 ) ) ;
#127 = DIRECTION ( 'NONE',  ( -3.491481338843133355E-15, 1.224646799147353207E-16, -1.000000000000000000 ) ) ;
#128 = DIRECTION ( 'NONE',  ( 4.275831445896958607E-31, 1.000000000000000000, 1.224646799147353454E-16 ) ) ;
#129 = DIRECTION ( 'NONE',  ( 0.0000000000000000000, 1.000000000000000000, 0.0000000000000000000 ) ) ;
#130 = APPLICATION_PROTOCOL_DEFINITION ( 'international standard', 'config_control_design', 1994, #141 ) ;
#131 = UNCERTAINTY_MEASURE_WITH_UNIT (LENGTH_MEASURE( 1.000000000000000082E-05 ), #22, 'distance_accuracy_value', 'NONE');
#132 = CARTESIAN_POINT ( 'NONE',  ( 4.189777606611760026E-14, 2.180000000000008598, 12.00000000000000000 ) ) ;
#133 = ADVANCED_FACE ( 'NONE', ( #56, #16 ), #8, .T. ) ;
#134 = AXIS2_PLACEMENT_3D ( 'NONE', #164, #17, #129 ) ;
#135 = COORDINATED_UNIVERSAL_TIME_OFFSET ( 1, 0, .AHEAD. ) ;
#136 = DIRECTION ( 'NONE',  ( -3.491481338843133355E-15, 1.224646799147353207E-16, -1.000000000000000000 ) ) ;
#137 = EDGE_LOOP ( 'NONE', ( #66 ) ) ;
#138 = CLOSED_SHELL ( 'NONE', ( #219, #65, #102, #142, #25 ) ) ;
#139 = DATE_AND_TIME ( #84, #110 ) ;
#140 = EDGE_LOOP ( 'NONE', ( #47 ) ) ;
#141 = APPLICATION_CONTEXT ( 'configuration controlled 3d designs of mechanical parts and assemblies' ) ;
#142 = ADVANCED_FACE ( 'NONE', ( #88, #221 ), #177, .T. ) ;
#143 = ORIENTED_EDGE ( 'NONE', *, *, #234, .F. ) ;
#144 = ADVANCED_BREP_SHAPE_REPRESENTATION ( '321662', ( #199, #41, #73 ), #183 ) ;
#145 = AXIS2_PLACEMENT_3D ( 'NONE', #19, #107, #72 ) ;
#146 = EDGE_LOOP ( 'NONE', ( #103 ) ) ;
#147 = DIRECTION ( 'NONE',  ( -3.491481338843133355E-15, 1.224646799147353207E-16, -1.000000000000000000 ) ) ;
#148 = CARTESIAN_POINT ( 'NONE',  ( 4.189777606611760026E-14, -1.469576158976823947E-15, 12.00000000000000000 ) ) ;
#149 = AXIS2_PLACEMENT_3D ( 'NONE', #238, #150, #220 ) ;
#150 = DIRECTION ( 'NONE',  ( -3.491481338843133355E-15, 1.224646799147353207E-16, -1.000000000000000000 ) ) ;
#151 = DIRECTION ( 'NONE',  ( -3.491481338843133355E-15, 1.224646799147353207E-16, -1.000000000000000000 ) ) ;
#152 = FACE_OUTER_BOUND ( 'NONE', #162, .T. ) ;
#153 = DIRECTION ( 'NONE',  ( 1.000000000000000000, 0.0000000000000000000, 0.0000000000000000000 ) ) ;
#154 = CARTESIAN_POINT ( 'NONE',  ( 2.779219145719134403E-13, 1.999999999999991340, 79.60000000000000853 ) ) ;
#155 = PERSON_AND_ORGANIZATION ( #179, #27 ) ;
#156 = CALENDAR_DATE ( 2021, 2, 12 ) ;
#157 = PRODUCT ( '321662', '321662', '', ( #193 ) ) ;
#158 = PLANE ( 'NONE',  #145 ) ;
#159 = PERSON_AND_ORGANIZATION_ROLE ( 'classification_officer' ) ;
#160 = EDGE_LOOP ( 'NONE', ( #121 ) ) ;
#161 = PRODUCT_DEFINITION_FORMATION_WITH_SPECIFIED_SOURCE ( 'ANY', '', #157, .NOT_KNOWN. ) ;
#162 = EDGE_LOOP ( 'NONE', ( #87 ) ) ;
#163 = LOCAL_TIME ( 13, 56, 12.00000000000000000, #135 ) ;
#164 = CARTESIAN_POINT ( 'NONE',  ( 2.793185071074506684E-13, -9.797174393178826052E-15, 80.00000000000000000 ) ) ;
#165 = PRODUCT_DEFINITION ( 'UNKNOWN', '', #161, #4 ) ;
#166 = DIRECTION ( 'NONE',  ( -3.491481338843133355E-15, 1.224646799147353207E-16, -1.000000000000000000 ) ) ;
#167 = DIRECTION ( 'NONE',  ( 0.0000000000000000000, 1.000000000000000000, 0.0000000000000000000 ) ) ;
#168 = CIRCLE ( 'NONE', #239, 2.000000000000000888 ) ;
#169 = LOCAL_TIME ( 13, 56, 12.00000000000000000, #209 ) ;
#170 = DIRECTION ( 'NONE',  ( 0.0000000000000000000, 1.000000000000000000, 0.0000000000000000000 ) ) ;
#171 = DIRECTION ( 'NONE',  ( -4.275831445896958607E-31, -1.000000000000000000, -1.224646799147353207E-16 ) ) ;
#172 = CC_DESIGN_APPROVAL ( #117, ( #161 ) ) ;
#173 = CC_DESIGN_PERSON_AND_ORGANIZATION_ASSIGNMENT ( #229, #242, ( #157 ) ) ;
#174 = VERTEX_POINT ( 'NONE', #114 ) ;
#175 = APPROVAL ( #23, 'UNSPECIFIED' ) ;
#176 = APPLICATION_PROTOCOL_DEFINITION ( 'international standard', 'config_control_design', 1994, #243 ) ;
#177 = CONICAL_SURFACE ( 'NONE', #134, 1.600000000000000977, 0.7853981633974512766 ) ;
#178 = DATE_TIME_ROLE ( 'classification_date' ) ;
#179 = PERSON ( 'UNSPECIFIED', 'UNSPECIFIED', 'UNSPECIFIED', ('UNSPECIFIED'), ('UNSPECIFIED'), ('UNSPECIFIED') ) ;
#180 = EDGE_CURVE ( 'NONE', #63, #63, #122, .T. ) ;
#181 = EDGE_LOOP ( 'NONE', ( #28 ) ) ;
#182 = EDGE_LOOP ( 'NONE', ( #124 ) ) ;
#183 =( GEOMETRIC_REPRESENTATION_CONTEXT ( 3 ) GLOBAL_UNCERTAINTY_ASSIGNED_CONTEXT ( ( #131 ) ) GLOBAL_UNIT_ASSIGNED_CONTEXT ( ( #22, #99, #208 ) ) REPRESENTATION_CONTEXT ( 'NONE', 'WORKASPACE' ) );
#184 = FACE_OUTER_BOUND ( 'NONE', #123, .T. ) ;
#185 = DIRECTION ( 'NONE',  ( 4.275831445896958607E-31, 1.000000000000000000, 1.224646799147353207E-16 ) ) ;
#186 = CYLINDRICAL_SURFACE ( 'NONE', #38, 1.999999999999996669 ) ;
#187 = AXIS2_PLACEMENT_3D ( 'NONE', #90, #55, #167 ) ;
#188 = DIRECTION ( 'NONE',  ( 3.491481338843133355E-15, -1.224646799147353207E-16, 1.000000000000000000 ) ) ;
#189 = DIRECTION ( 'NONE',  ( -4.275831445896958607E-31, -1.000000000000000000, -1.224646799147353454E-16 ) ) ;
#190 = CIRCLE ( 'NONE', #30, 2.180000000000009930 ) ;
#191 = CC_DESIGN_APPROVAL ( #175, ( #165 ) ) ;
#192 = CARTESIAN_POINT ( 'NONE',  ( 4.189777606611760026E-14, -1.469576158976823947E-15, 12.00000000000000000 ) ) ;
#193 = MECHANICAL_CONTEXT ( 'NONE', #243, 'mechanical' ) ;
#194 = AXIS2_PLACEMENT_3D ( 'NONE', #241, #53, #126 ) ;
#195 = APPROVAL_STATUS ( 'not_yet_approved' ) ;
#196 = CIRCLE ( 'NONE', #228, 1.999999999999991784 ) ;
#197 = ORIENTED_EDGE ( 'NONE', *, *, #74, .F. ) ;
#198 = DIRECTION ( 'NONE',  ( 0.0000000000000000000, 1.000000000000000000, 0.0000000000000000000 ) ) ;
#199 = MANIFOLD_SOLID_BREP ( 'Corps-Déplacer/Copier1[1]', #138 ) ;
#200 = APPROVAL_PERSON_ORGANIZATION ( #155, #175, #226 ) ;
#201 = FACE_OUTER_BOUND ( 'NONE', #181, .T. ) ;
#202 = DIRECTION ( 'NONE',  ( -3.491481338843133355E-15, 1.224646799147353207E-16, -1.000000000000000000 ) ) ;
#203 = ADVANCED_FACE ( 'NONE', ( #54 ), #36, .T. ) ;
#204 = FACE_OUTER_BOUND ( 'NONE', #182, .T. ) ;
#205 = CIRCLE ( 'NONE', #194, 1.600000000000000977 ) ;
#206 = APPROVAL_PERSON_ORGANIZATION ( #44, #117, #43 ) ;
#207 = FACE_OUTER_BOUND ( 'NONE', #233, .T. ) ;
#208 =( NAMED_UNIT ( * ) SI_UNIT ( $, .STERADIAN. ) SOLID_ANGLE_UNIT ( ) );
#209 = COORDINATED_UNIVERSAL_TIME_OFFSET ( 1, 0, .AHEAD. ) ;
#210 = APPROVAL_STATUS ( 'not_yet_approved' ) ;
#211 = CC_DESIGN_PERSON_AND_ORGANIZATION_ASSIGNMENT ( #45, #101, ( #161 ) ) ;
#212 = PERSON_AND_ORGANIZATION_ROLE ( 'design_supplier' ) ;
#213 = PERSON_AND_ORGANIZATION ( #179, #27 ) ;
#214 = EDGE_CURVE ( 'NONE', #94, #94, #26, .T. ) ;
#215 = EDGE_LOOP ( 'NONE', ( #104 ) ) ;
#216 = CYLINDRICAL_SURFACE ( 'NONE', #236, 2.180000000000009930 ) ;
#217 = DIRECTION ( 'NONE',  ( 4.275831445896958607E-31, 1.000000000000000000, 1.224646799147353207E-16 ) ) ;
#218 = CC_DESIGN_SECURITY_CLASSIFICATION ( #15, ( #161 ) ) ;
#219 = ADVANCED_FACE ( 'NONE', ( #204 ), #37, .F. ) ;
#220 = DIRECTION ( 'NONE',  ( 4.275831445896958607E-31, 1.000000000000000000, 1.224646799147353207E-16 ) ) ;
#221 = FACE_BOUND ( 'NONE', #31, .T. ) ;
#222 = CARTESIAN_POINT ( 'NONE',  ( 0.0000000000000000000, 0.0000000000000000000, 0.0000000000000000000 ) ) ;
#223 = CC_DESIGN_PERSON_AND_ORGANIZATION_ASSIGNMENT ( #213, #159, ( #15 ) ) ;
#224 = AXIS2_PLACEMENT_3D ( 'NONE', #192, #136, #227 ) ;
#225 = VERTEX_POINT ( 'NONE', #154 ) ;
#226 = APPROVAL_ROLE ( '' ) ;
#227 = DIRECTION ( 'NONE',  ( 0.0000000000000000000, 1.000000000000000000, 0.0000000000000000000 ) ) ;
#228 = AXIS2_PLACEMENT_3D ( 'NONE', #106, #166, #198 ) ;
#229 = PERSON_AND_ORGANIZATION ( #179, #27 ) ;
#230 = CALENDAR_DATE ( 2021, 2, 12 ) ;
#231 = APPROVAL_DATE_TIME ( #9, #11 ) ;
#232 = EDGE_LOOP ( 'NONE', ( #10 ) ) ;
#233 = EDGE_LOOP ( 'NONE', ( #13 ) ) ;
#234 = EDGE_CURVE ( 'NONE', #57, #57, #68, .T. ) ;
#235 = ORIENTED_EDGE ( 'NONE', *, *, #214, .T. ) ;
#236 = AXIS2_PLACEMENT_3D ( 'NONE', #51, #18, #217 ) ;
#237 = DIRECTION ( 'NONE',  ( 0.0000000000000000000, 1.000000000000000000, 0.0000000000000000000 ) ) ;
#238 = CARTESIAN_POINT ( 'NONE',  ( -3.805489986848311972E-31, 1.334786206569060004E-32, -1.089935651241149830E-16 ) ) ;
#239 = AXIS2_PLACEMENT_3D ( 'NONE', #34, #151, #170 ) ;
#240 = DIRECTION ( 'NONE',  ( -3.491481338843133355E-15, 1.224646799147353207E-16, -1.000000000000000000 ) ) ;
#241 = CARTESIAN_POINT ( 'NONE',  ( 2.793185071074506684E-13, -9.797174393178826052E-15, 80.00000000000000000 ) ) ;
#242 = PERSON_AND_ORGANIZATION_ROLE ( 'design_owner' ) ;
#243 = APPLICATION_CONTEXT ( 'configuration controlled 3d designs of mechanical parts and assemblies' ) ;
ENDSEC;
END-ISO-10303-21;
