ISO-10303-21;
HEADER;
FILE_DESCRIPTION (( 'STEP AP203' ),
    '1' );
FILE_NAME ('321661.step',
    '2021-12-02T12:56:11',
    ( '' ),
    ( '' ),
    'SwSTEP 2.0',
    'SolidWorks 2019',
    '' );
FILE_SCHEMA (( 'CONFIG_CONTROL_DESIGN' ));
ENDSEC;

DATA;
#1 =( NAMED_UNIT ( * ) SI_UNIT ( $, .STERADIAN. ) SOLID_ANGLE_UNIT ( ) );
#2 = DATE_AND_TIME ( #113, #110 ) ;
#3 = SHAPE_DEFINITION_REPRESENTATION ( #193, #17 ) ;
#4 = AXIS2_PLACEMENT_3D ( 'NONE', #237, #71, #142 ) ;
#5 = CC_DESIGN_PERSON_AND_ORGANIZATION_ASSIGNMENT ( #21, #80, ( #73 ) ) ;
#6 = DIRECTION ( 'NONE',  ( -4.275831445896958607E-31, -1.000000000000000000, -1.224646799147353207E-16 ) ) ;
#7 = APPLICATION_CONTEXT ( 'configuration controlled 3d designs of mechanical parts and assemblies' ) ;
#8 = ORIENTED_EDGE ( 'NONE', *, *, #115, .F. ) ;
#9 = CYLINDRICAL_SURFACE ( 'NONE', #138, 2.175000000000009592 ) ;
#10 = FACE_OUTER_BOUND ( 'NONE', #182, .T. ) ;
#11 = PLANE ( 'NONE',  #140 ) ;
#12 = FACE_BOUND ( 'NONE', #150, .T. ) ;
#13 = AXIS2_PLACEMENT_3D ( 'NONE', #70, #158, #87 ) ;
#14 = ADVANCED_FACE ( 'NONE', ( #75, #178 ), #9, .T. ) ;
#15 = ADVANCED_FACE ( 'NONE', ( #24 ), #11, .T. ) ;
#16 =( NAMED_UNIT ( * ) PLANE_ANGLE_UNIT ( ) SI_UNIT ( $, .RADIAN. ) );
#17 = ADVANCED_BREP_SHAPE_REPRESENTATION ( '321661', ( #198, #36, #231 ), #91 ) ;
#18 = DIRECTION ( 'NONE',  ( 3.491481338843133355E-15, -1.224646799147353207E-16, 1.000000000000000000 ) ) ;
#19 = CONICAL_SURFACE ( 'NONE', #46, 1.775000000000008571, 0.7853981633974491672 ) ;
#20 = COORDINATED_UNIVERSAL_TIME_OFFSET ( 1, 0, .AHEAD. ) ;
#21 = PERSON_AND_ORGANIZATION ( #68, #217 ) ;
#22 = APPROVAL ( #40, 'UNSPECIFIED' ) ;
#23 = CC_DESIGN_SECURITY_CLASSIFICATION ( #163, ( #81 ) ) ;
#24 = FACE_OUTER_BOUND ( 'NONE', #126, .T. ) ;
#25 = EDGE_LOOP ( 'NONE', ( #199 ) ) ;
#26 = PRODUCT ( '321661', '321661', '', ( #147 ) ) ;
#27 = PLANE ( 'NONE',  #187 ) ;
#28 = EDGE_LOOP ( 'NONE', ( #8 ) ) ;
#29 = DIRECTION ( 'NONE',  ( 0.0000000000000000000, 1.000000000000000000, 0.0000000000000000000 ) ) ;
#30 = CARTESIAN_POINT ( 'NONE',  ( 4.189777606611760026E-14, 1.630988763644775485E-32, 12.00000000000000000 ) ) ;
#31 = CARTESIAN_POINT ( 'NONE',  ( 4.189777606611760026E-14, 1.630988763644775485E-32, 12.00000000000000000 ) ) ;
#32 = PRODUCT_RELATED_PRODUCT_CATEGORY ( 'detail', '', ( #26 ) ) ;
#33 = AXIS2_PLACEMENT_3D ( 'NONE', #222, #120, #55 ) ;
#34 = CIRCLE ( 'NONE', #38, 2.175000000000009592 ) ;
#35 = EDGE_LOOP ( 'NONE', ( #124 ) ) ;
#36 = MANIFOLD_SOLID_BREP ( 'Corps-Déplacer/Copier1[2]', #47 ) ;
#37 = CARTESIAN_POINT ( 'NONE',  ( 2.779219145719134403E-13, 1.999999999999991340, 79.60000000000000853 ) ) ;
#38 = AXIS2_PLACEMENT_3D ( 'NONE', #104, #67, #49 ) ;
#39 = DIRECTION ( 'NONE',  ( -3.491481338843133355E-15, 1.224646799147353207E-16, -1.000000000000000000 ) ) ;
#40 = APPROVAL_STATUS ( 'not_yet_approved' ) ;
#41 = DATE_AND_TIME ( #97, #63 ) ;
#42 = APPROVAL_ROLE ( '' ) ;
#43 = ADVANCED_FACE ( 'NONE', ( #159 ), #27, .F. ) ;
#44 = PERSON_AND_ORGANIZATION ( #68, #217 ) ;
#45 = DATE_TIME_ROLE ( 'classification_date' ) ;
#46 = AXIS2_PLACEMENT_3D ( 'NONE', #48, #196, #160 ) ;
#47 = CLOSED_SHELL ( 'NONE', ( #14, #211, #15, #109 ) ) ;
#48 = CARTESIAN_POINT ( 'NONE',  ( -7.589600816467138355E-31, 2.662073614224810117E-32, -2.173748068486562537E-16 ) ) ;
#49 = DIRECTION ( 'NONE',  ( 4.427425159510867831E-31, 1.000000000000000000, 1.246209393661493949E-16 ) ) ;
#50 = DIRECTION ( 'NONE',  ( 0.0000000000000000000, 1.000000000000000000, 0.0000000000000000000 ) ) ;
#51 = CONICAL_SURFACE ( 'NONE', #130, 1.600000000000000977, 0.7853981633974512766 ) ;
#52 = ORIENTED_EDGE ( 'NONE', *, *, #220, .F. ) ;
#53 = CC_DESIGN_DATE_AND_TIME_ASSIGNMENT ( #66, #45, ( #163 ) ) ;
#54 = APPROVAL ( #99, 'UNSPECIFIED' ) ;
#55 = DIRECTION ( 'NONE',  ( 0.0000000000000000000, 1.000000000000000000, 0.0000000000000000000 ) ) ;
#56 = DIRECTION ( 'NONE',  ( 4.275831445896958607E-31, 1.000000000000000000, 1.224646799147353207E-16 ) ) ;
#57 = ORIENTED_EDGE ( 'NONE', *, *, #155, .F. ) ;
#58 = ORIENTED_EDGE ( 'NONE', *, *, #155, .T. ) ;
#59 = EDGE_LOOP ( 'NONE', ( #89 ) ) ;
#60 = PLANE ( 'NONE',  #235 ) ;
#61 = DIRECTION ( 'NONE',  ( 1.000000000000000000, 0.0000000000000000000, 0.0000000000000000000 ) ) ;
#62 = DESIGN_CONTEXT ( 'detailed design', #128, 'design' ) ;
#63 = LOCAL_TIME ( 13, 56, 11.00000000000000000, #195 ) ;
#64 = PERSON_AND_ORGANIZATION_ROLE ( 'design_supplier' ) ;
#65 = DATE_AND_TIME ( #135, #84 ) ;
#66 = DATE_AND_TIME ( #133, #208 ) ;
#67 = DIRECTION ( 'NONE',  ( -3.491481338843133355E-15, 1.224646799147353207E-16, -1.000000000000000000 ) ) ;
#68 = PERSON ( 'UNSPECIFIED', 'UNSPECIFIED', 'UNSPECIFIED', ('UNSPECIFIED'), ('UNSPECIFIED'), ('UNSPECIFIED') ) ;
#69 = APPROVAL_PERSON_ORGANIZATION ( #188, #22, #223 ) ;
#70 = CARTESIAN_POINT ( 'NONE',  ( 2.779219145719134403E-13, -9.748188521212932624E-15, 79.60000000000000853 ) ) ;
#71 = DIRECTION ( 'NONE',  ( -3.491481338843133355E-15, 1.224646799147353207E-16, -1.000000000000000000 ) ) ;
#72 = CARTESIAN_POINT ( 'NONE',  ( 4.189777606611760026E-14, -1.469576158976823947E-15, 12.00000000000000000 ) ) ;
#73 = PRODUCT_DEFINITION ( 'UNKNOWN', '', #81, #62 ) ;
#74 = CIRCLE ( 'NONE', #167, 1.775000000000008571 ) ;
#75 = FACE_OUTER_BOUND ( 'NONE', #25, .T. ) ;
#76 = EDGE_LOOP ( 'NONE', ( #58 ) ) ;
#77 = FACE_OUTER_BOUND ( 'NONE', #28, .T. ) ;
#78 = EDGE_CURVE ( 'NONE', #95, #95, #34, .T. ) ;
#79 = CARTESIAN_POINT ( 'NONE',  ( 2.793185071074506684E-13, -9.797174393178826052E-15, 80.00000000000000000 ) ) ;
#80 = PERSON_AND_ORGANIZATION_ROLE ( 'creator' ) ;
#81 = PRODUCT_DEFINITION_FORMATION_WITH_SPECIFIED_SOURCE ( 'ANY', '', #26, .NOT_KNOWN. ) ;
#82 = DIRECTION ( 'NONE',  ( 4.275831445896958607E-31, 1.000000000000000000, 1.224646799147353207E-16 ) ) ;
#83 = DIRECTION ( 'NONE',  ( 3.491481338843133355E-15, -1.224646799147353207E-16, 1.000000000000000000 ) ) ;
#84 = LOCAL_TIME ( 13, 56, 11.00000000000000000, #154 ) ;
#85 = DIRECTION ( 'NONE',  ( -3.491481338843133355E-15, 1.224646799147353207E-16, -1.000000000000000000 ) ) ;
#86 = ADVANCED_FACE ( 'NONE', ( #10, #218 ), #119, .T. ) ;
#87 = DIRECTION ( 'NONE',  ( 0.0000000000000000000, 1.000000000000000000, 0.0000000000000000000 ) ) ;
#88 = CIRCLE ( 'NONE', #194, 2.175000000000010036 ) ;
#89 = ORIENTED_EDGE ( 'NONE', *, *, #78, .F. ) ;
#90 = DIRECTION ( 'NONE',  ( 0.0000000000000000000, 1.000000000000000000, 0.0000000000000000000 ) ) ;
#91 =( GEOMETRIC_REPRESENTATION_CONTEXT ( 3 ) GLOBAL_UNCERTAINTY_ASSIGNED_CONTEXT ( ( #186 ) ) GLOBAL_UNIT_ASSIGNED_CONTEXT ( ( #226, #16, #1 ) ) REPRESENTATION_CONTEXT ( 'NONE', 'WORKASPACE' ) );
#92 = CC_DESIGN_PERSON_AND_ORGANIZATION_ASSIGNMENT ( #44, #64, ( #81 ) ) ;
#93 = VERTEX_POINT ( 'NONE', #209 ) ;
#94 = DIRECTION ( 'NONE',  ( -4.275831445896958607E-31, -1.000000000000000000, -1.224646799147353207E-16 ) ) ;
#95 = VERTEX_POINT ( 'NONE', #213 ) ;
#96 = DATE_AND_TIME ( #215, #240 ) ;
#97 = CALENDAR_DATE ( 2021, 2, 12 ) ;
#98 = CONICAL_SURFACE ( 'NONE', #221, 2.175000000000010036, 0.5235987755983007030 ) ;
#99 = APPROVAL_STATUS ( 'not_yet_approved' ) ;
#100 = FACE_BOUND ( 'NONE', #76, .T. ) ;
#101 = EDGE_LOOP ( 'NONE', ( #107 ) ) ;
#102 = PLANE ( 'NONE',  #4 ) ;
#103 = EDGE_LOOP ( 'NONE', ( #205 ) ) ;
#104 = CARTESIAN_POINT ( 'NONE',  ( 1.396592535537253145E-15, -4.898587196589411843E-17, 0.3999999999999999112 ) ) ;
#105 = CARTESIAN_POINT ( 'NONE',  ( 2.793185071074506684E-13, -9.797174393178826052E-15, 80.00000000000000000 ) ) ;
#106 = AXIS2_PLACEMENT_3D ( 'NONE', #146, #219, #50 ) ;
#107 = ORIENTED_EDGE ( 'NONE', *, *, #145, .F. ) ;
#108 = CARTESIAN_POINT ( 'NONE',  ( 0.0000000000000000000, 1.775000000000008571, 0.0000000000000000000 ) ) ;
#109 = ADVANCED_FACE ( 'NONE', ( #238, #156 ), #19, .T. ) ;
#110 = LOCAL_TIME ( 13, 56, 11.00000000000000000, #204 ) ;
#111 = VERTEX_POINT ( 'NONE', #37 ) ;
#112 = PERSON_AND_ORGANIZATION_ROLE ( 'design_owner' ) ;
#113 = CALENDAR_DATE ( 2021, 2, 12 ) ;
#114 = APPROVAL_DATE_TIME ( #2, #22 ) ;
#115 = EDGE_CURVE ( 'NONE', #111, #111, #144, .T. ) ;
#116 = CC_DESIGN_APPROVAL ( #22, ( #73 ) ) ;
#117 = PERSON_AND_ORGANIZATION ( #68, #217 ) ;
#118 = CARTESIAN_POINT ( 'NONE',  ( 0.0000000000000000000, 0.0000000000000000000, 0.0000000000000000000 ) ) ;
#119 = CYLINDRICAL_SURFACE ( 'NONE', #139, 1.999999999999996669 ) ;
#120 = DIRECTION ( 'NONE',  ( -3.491481338843133355E-15, 1.224646799147353207E-16, -1.000000000000000000 ) ) ;
#121 = APPROVAL_PERSON_ORGANIZATION ( #117, #54, #171 ) ;
#122 = DIRECTION ( 'NONE',  ( -3.491481338843133355E-15, 1.224646799147353207E-16, -1.000000000000000000 ) ) ;
#123 = APPLICATION_PROTOCOL_DEFINITION ( 'international standard', 'config_control_design', 1994, #128 ) ;
#124 = ORIENTED_EDGE ( 'NONE', *, *, #115, .T. ) ;
#125 = CIRCLE ( 'NONE', #33, 1.999999999999991784 ) ;
#126 = EDGE_LOOP ( 'NONE', ( #241 ) ) ;
#127 = CC_DESIGN_PERSON_AND_ORGANIZATION_ASSIGNMENT ( #192, #232, ( #163 ) ) ;
#128 = APPLICATION_CONTEXT ( 'configuration controlled 3d designs of mechanical parts and assemblies' ) ;
#129 = DIRECTION ( 'NONE',  ( 0.0000000000000000000, 0.0000000000000000000, 1.000000000000000000 ) ) ;
#130 = AXIS2_PLACEMENT_3D ( 'NONE', #79, #229, #90 ) ;
#131 = APPLICATION_PROTOCOL_DEFINITION ( 'international standard', 'config_control_design', 1994, #7 ) ;
#132 = SECURITY_CLASSIFICATION_LEVEL ( 'unclassified' ) ;
#133 = CALENDAR_DATE ( 2021, 2, 12 ) ;
#134 = APPROVAL ( #173, 'UNSPECIFIED' ) ;
#135 = CALENDAR_DATE ( 2021, 2, 12 ) ;
#136 = ADVANCED_FACE ( 'NONE', ( #239 ), #102, .F. ) ;
#137 = CARTESIAN_POINT ( 'NONE',  ( -3.794800408233569177E-31, 1.331036807112405059E-32, -1.086874034243281268E-16 ) ) ;
#138 = AXIS2_PLACEMENT_3D ( 'NONE', #234, #122, #203 ) ;
#139 = AXIS2_PLACEMENT_3D ( 'NONE', #118, #85, #82 ) ;
#140 = AXIS2_PLACEMENT_3D ( 'NONE', #137, #143, #177 ) ;
#141 = EDGE_LOOP ( 'NONE', ( #157 ) ) ;
#142 = DIRECTION ( 'NONE',  ( 4.275831445896958607E-31, 1.000000000000000000, 1.224646799147353207E-16 ) ) ;
#143 = DIRECTION ( 'NONE',  ( -3.491481338843133355E-15, 1.224646799147353207E-16, -1.000000000000000000 ) ) ;
#144 = CIRCLE ( 'NONE', #13, 2.000000000000000888 ) ;
#145 = EDGE_CURVE ( 'NONE', #93, #93, #181, .T. ) ;
#146 = CARTESIAN_POINT ( 'NONE',  ( 4.189777606611760026E-14, -1.469576158976823947E-15, 12.00000000000000000 ) ) ;
#147 = MECHANICAL_CONTEXT ( 'NONE', #7, 'mechanical' ) ;
#148 = EDGE_LOOP ( 'NONE', ( #52 ) ) ;
#149 = CARTESIAN_POINT ( 'NONE',  ( 4.295607510381481513E-14, 1.999999999999990452, 12.30310889132458385 ) ) ;
#150 = EDGE_LOOP ( 'NONE', ( #162 ) ) ;
#151 = DIRECTION ( 'NONE',  ( -3.491481338843133355E-15, 1.224646799147353207E-16, -1.000000000000000000 ) ) ;
#152 = CLOSED_SHELL ( 'NONE', ( #43, #179, #86, #225, #136 ) ) ;
#153 = PERSON_AND_ORGANIZATION ( #68, #217 ) ;
#154 = COORDINATED_UNIVERSAL_TIME_OFFSET ( 1, 0, .AHEAD. ) ;
#155 = EDGE_CURVE ( 'NONE', #228, #228, #125, .T. ) ;
#156 = FACE_BOUND ( 'NONE', #103, .T. ) ;
#157 = ORIENTED_EDGE ( 'NONE', *, *, #145, .T. ) ;
#158 = DIRECTION ( 'NONE',  ( -3.491481338843133355E-15, 1.224646799147353207E-16, -1.000000000000000000 ) ) ;
#159 = FACE_OUTER_BOUND ( 'NONE', #141, .T. ) ;
#160 = DIRECTION ( 'NONE',  ( -4.275831445896958607E-31, -1.000000000000000000, -1.224646799147353207E-16 ) ) ;
#161 = CC_DESIGN_DATE_AND_TIME_ASSIGNMENT ( #65, #190, ( #73 ) ) ;
#162 = ORIENTED_EDGE ( 'NONE', *, *, #220, .T. ) ;
#163 = SECURITY_CLASSIFICATION ( '', '', #132 ) ;
#164 = CARTESIAN_POINT ( 'NONE',  ( 4.189777606611760026E-14, -1.469576158976823947E-15, 12.00000000000000000 ) ) ;
#165 = DIRECTION ( 'NONE',  ( 0.0000000000000000000, 1.000000000000000000, 0.0000000000000000000 ) ) ;
#166 = CARTESIAN_POINT ( 'NONE',  ( 4.189777606611760026E-14, 2.175000000000008704, 12.00000000000000000 ) ) ;
#167 = AXIS2_PLACEMENT_3D ( 'NONE', #242, #151, #56 ) ;
#168 = FACE_OUTER_BOUND ( 'NONE', #176, .T. ) ;
#169 = PERSON_AND_ORGANIZATION_ROLE ( 'creator' ) ;
#170 = CC_DESIGN_PERSON_AND_ORGANIZATION_ASSIGNMENT ( #233, #169, ( #81 ) ) ;
#171 = APPROVAL_ROLE ( '' ) ;
#172 = CC_DESIGN_APPROVAL ( #134, ( #81 ) ) ;
#173 = APPROVAL_STATUS ( 'not_yet_approved' ) ;
#174 = FACE_OUTER_BOUND ( 'NONE', #101, .T. ) ;
#175 = EDGE_LOOP ( 'NONE', ( #236 ) ) ;
#176 = EDGE_LOOP ( 'NONE', ( #197 ) ) ;
#177 = DIRECTION ( 'NONE',  ( 4.275831445896958607E-31, 1.000000000000000000, 1.224646799147353207E-16 ) ) ;
#178 = FACE_OUTER_BOUND ( 'NONE', #59, .T. ) ;
#179 = ADVANCED_FACE ( 'NONE', ( #100, #174 ), #98, .T. ) ;
#180 = DIRECTION ( 'NONE',  ( 0.0000000000000000000, 1.000000000000000000, 0.0000000000000000000 ) ) ;
#181 = CIRCLE ( 'NONE', #106, 2.175000000000010036 ) ;
#182 = EDGE_LOOP ( 'NONE', ( #57 ) ) ;
#183 = APPROVAL_PERSON_ORGANIZATION ( #230, #134, #42 ) ;
#184 = DIRECTION ( 'NONE',  ( -3.491481338843133355E-15, 1.224646799147353207E-16, -1.000000000000000000 ) ) ;
#185 = CARTESIAN_POINT ( 'NONE',  ( 2.793185071074506684E-13, 1.599999999999991207, 80.00000000000000000 ) ) ;
#186 = UNCERTAINTY_MEASURE_WITH_UNIT (LENGTH_MEASURE( 1.000000000000000082E-05 ), #226, 'distance_accuracy_value', 'NONE');
#187 = AXIS2_PLACEMENT_3D ( 'NONE', #30, #83, #6 ) ;
#188 = PERSON_AND_ORGANIZATION ( #68, #217 ) ;
#189 = CARTESIAN_POINT ( 'NONE',  ( 0.0000000000000000000, 0.0000000000000000000, 0.0000000000000000000 ) ) ;
#190 = DATE_TIME_ROLE ( 'creation_date' ) ;
#191 = APPROVAL_DATE_TIME ( #96, #134 ) ;
#192 = PERSON_AND_ORGANIZATION ( #68, #217 ) ;
#193 = PRODUCT_DEFINITION_SHAPE ( 'NONE', 'NONE',  #73 ) ;
#194 = AXIS2_PLACEMENT_3D ( 'NONE', #164, #39, #165 ) ;
#195 = COORDINATED_UNIVERSAL_TIME_OFFSET ( 1, 0, .AHEAD. ) ;
#196 = DIRECTION ( 'NONE',  ( 3.491481338843133355E-15, -1.224646799147353207E-16, 1.000000000000000000 ) ) ;
#197 = ORIENTED_EDGE ( 'NONE', *, *, #210, .F. ) ;
#198 = MANIFOLD_SOLID_BREP ( 'Corps-Déplacer/Copier1[1]', #152 ) ;
#199 = ORIENTED_EDGE ( 'NONE', *, *, #210, .T. ) ;
#200 = CC_DESIGN_APPROVAL ( #54, ( #163 ) ) ;
#201 = CC_DESIGN_PERSON_AND_ORGANIZATION_ASSIGNMENT ( #153, #112, ( #26 ) ) ;
#202 = DIRECTION ( 'NONE',  ( -3.491481338843133355E-15, 1.224646799147353207E-16, -1.000000000000000000 ) ) ;
#203 = DIRECTION ( 'NONE',  ( 4.275831445896958607E-31, 1.000000000000000000, 1.224646799147353207E-16 ) ) ;
#204 = COORDINATED_UNIVERSAL_TIME_OFFSET ( 1, 0, .AHEAD. ) ;
#205 = ORIENTED_EDGE ( 'NONE', *, *, #243, .F. ) ;
#206 = CIRCLE ( 'NONE', #227, 1.600000000000000977 ) ;
#207 = VERTEX_POINT ( 'NONE', #166 ) ;
#208 = LOCAL_TIME ( 13, 56, 11.00000000000000000, #216 ) ;
#209 = CARTESIAN_POINT ( 'NONE',  ( 4.189777606611760026E-14, 2.175000000000008704, 12.00000000000000000 ) ) ;
#210 = EDGE_CURVE ( 'NONE', #207, #207, #88, .T. ) ;
#211 = ADVANCED_FACE ( 'NONE', ( #168 ), #60, .T. ) ;
#212 = VERTEX_POINT ( 'NONE', #108 ) ;
#213 = CARTESIAN_POINT ( 'NONE',  ( 1.396592535537254131E-15, 2.175000000000009592, 0.4000000000000001887 ) ) ;
#214 = APPROVAL_DATE_TIME ( #41, #54 ) ;
#215 = CALENDAR_DATE ( 2021, 2, 12 ) ;
#216 = COORDINATED_UNIVERSAL_TIME_OFFSET ( 1, 0, .AHEAD. ) ;
#217 = ORGANIZATION ( 'UNSPECIFIED', 'UNSPECIFIED', '' ) ;
#218 = FACE_OUTER_BOUND ( 'NONE', #35, .T. ) ;
#219 = DIRECTION ( 'NONE',  ( -3.491481338843133355E-15, 1.224646799147353207E-16, -1.000000000000000000 ) ) ;
#220 = EDGE_CURVE ( 'NONE', #224, #224, #206, .T. ) ;
#221 = AXIS2_PLACEMENT_3D ( 'NONE', #72, #202, #29 ) ;
#222 = CARTESIAN_POINT ( 'NONE',  ( 4.295607510381481513E-14, -1.506696292332199312E-15, 12.30310889132458385 ) ) ;
#223 = APPROVAL_ROLE ( '' ) ;
#224 = VERTEX_POINT ( 'NONE', #185 ) ;
#225 = ADVANCED_FACE ( 'NONE', ( #77, #12 ), #51, .T. ) ;
#226 =( LENGTH_UNIT ( ) NAMED_UNIT ( * ) SI_UNIT ( .MILLI., .METRE. ) );
#227 = AXIS2_PLACEMENT_3D ( 'NONE', #105, #184, #180 ) ;
#228 = VERTEX_POINT ( 'NONE', #149 ) ;
#229 = DIRECTION ( 'NONE',  ( -3.491481338843133355E-15, 1.224646799147353207E-16, -1.000000000000000000 ) ) ;
#230 = PERSON_AND_ORGANIZATION ( #68, #217 ) ;
#231 = AXIS2_PLACEMENT_3D ( 'NONE', #189, #129, #61 ) ;
#232 = PERSON_AND_ORGANIZATION_ROLE ( 'classification_officer' ) ;
#233 = PERSON_AND_ORGANIZATION ( #68, #217 ) ;
#234 = CARTESIAN_POINT ( 'NONE',  ( 0.0000000000000000000, 0.0000000000000000000, 0.0000000000000000000 ) ) ;
#235 = AXIS2_PLACEMENT_3D ( 'NONE', #31, #18, #94 ) ;
#236 = ORIENTED_EDGE ( 'NONE', *, *, #78, .T. ) ;
#237 = CARTESIAN_POINT ( 'NONE',  ( 2.793185071074506684E-13, 1.199807826129472128E-32, 80.00000000000000000 ) ) ;
#238 = FACE_OUTER_BOUND ( 'NONE', #175, .T. ) ;
#239 = FACE_OUTER_BOUND ( 'NONE', #148, .T. ) ;
#240 = LOCAL_TIME ( 13, 56, 11.00000000000000000, #20 ) ;
#241 = ORIENTED_EDGE ( 'NONE', *, *, #243, .T. ) ;
#242 = CARTESIAN_POINT ( 'NONE',  ( -7.589600816467138355E-31, 2.662073614224810117E-32, -2.173748068486562537E-16 ) ) ;
#243 = EDGE_CURVE ( 'NONE', #212, #212, #74, .T. ) ;
ENDSEC;
END-ISO-10303-21;
