ISO-10303-21;
HEADER;
FILE_DESCRIPTION (( 'STEP AP203' ),
    '1' );
FILE_NAME ('321660.step',
    '2021-12-02T12:56:10',
    ( '' ),
    ( '' ),
    'SwSTEP 2.0',
    'SolidWorks 2019',
    '' );
FILE_SCHEMA (( 'CONFIG_CONTROL_DESIGN' ));
ENDSEC;

DATA;
#1 = LOCAL_TIME ( 13, 56, 10.00000000000000000, #184 ) ;
#2 = FACE_OUTER_BOUND ( 'NONE', #55, .T. ) ;
#3 = CYLINDRICAL_SURFACE ( 'NONE', #202, 2.170000000000010143 ) ;
#4 = DIRECTION ( 'NONE',  ( 4.275831445896958607E-31, 1.000000000000000000, 1.224646799147353207E-16 ) ) ;
#5 = SECURITY_CLASSIFICATION ( '', '', #133 ) ;
#6 = CARTESIAN_POINT ( 'NONE',  ( 2.793185071074506684E-13, -9.797174393178826052E-15, 80.00000000000000000 ) ) ;
#7 = ADVANCED_FACE ( 'NONE', ( #89, #167 ), #21, .T. ) ;
#8 = APPLICATION_CONTEXT ( 'configuration controlled 3d designs of mechanical parts and assemblies' ) ;
#9 = PLANE ( 'NONE',  #14 ) ;
#10 = PERSON_AND_ORGANIZATION ( #208, #238 ) ;
#11 = VERTEX_POINT ( 'NONE', #196 ) ;
#12 = PERSON_AND_ORGANIZATION ( #208, #238 ) ;
#13 = CARTESIAN_POINT ( 'NONE',  ( 2.793185071074506684E-13, 1.599999999999991207, 80.00000000000000000 ) ) ;
#14 = AXIS2_PLACEMENT_3D ( 'NONE', #135, #93, #112 ) ;
#15 = EDGE_LOOP ( 'NONE', ( #33 ) ) ;
#16 = EDGE_LOOP ( 'NONE', ( #108 ) ) ;
#17 = DIRECTION ( 'NONE',  ( 0.0000000000000000000, 1.000000000000000000, 0.0000000000000000000 ) ) ;
#18 = CARTESIAN_POINT ( 'NONE',  ( 0.0000000000000000000, 0.0000000000000000000, 0.0000000000000000000 ) ) ;
#19 = FACE_BOUND ( 'NONE', #15, .T. ) ;
#20 = DIRECTION ( 'NONE',  ( -4.275831445896958607E-31, -1.000000000000000000, -1.224646799147353207E-16 ) ) ;
#21 = CONICAL_SURFACE ( 'NONE', #158, 1.600000000000000977, 0.7853981633974512766 ) ;
#22 = LOCAL_TIME ( 13, 56, 10.00000000000000000, #83 ) ;
#23 = FACE_OUTER_BOUND ( 'NONE', #206, .T. ) ;
#24 = PERSON_AND_ORGANIZATION_ROLE ( 'design_owner' ) ;
#25 = CALENDAR_DATE ( 2021, 2, 12 ) ;
#26 = AXIS2_PLACEMENT_3D ( 'NONE', #38, #139, #116 ) ;
#27 = APPLICATION_PROTOCOL_DEFINITION ( 'international standard', 'config_control_design', 1994, #8 ) ;
#28 = CONICAL_SURFACE ( 'NONE', #26, 2.170000000000010143, 0.5235987755982999259 ) ;
#29 = ORIENTED_EDGE ( 'NONE', *, *, #96, .T. ) ;
#30 = MANIFOLD_SOLID_BREP ( 'Corps-Déplacer/Copier1[2]', #85 ) ;
#31 = EDGE_LOOP ( 'NONE', ( #166 ) ) ;
#32 = CC_DESIGN_PERSON_AND_ORGANIZATION_ASSIGNMENT ( #111, #71, ( #136 ) ) ;
#33 = ORIENTED_EDGE ( 'NONE', *, *, #199, .T. ) ;
#34 = DIRECTION ( 'NONE',  ( 3.491481338843133355E-15, -1.224646799147353207E-16, 1.000000000000000000 ) ) ;
#35 = CC_DESIGN_PERSON_AND_ORGANIZATION_ASSIGNMENT ( #12, #24, ( #62 ) ) ;
#36 = APPLICATION_CONTEXT ( 'configuration controlled 3d designs of mechanical parts and assemblies' ) ;
#37 = FACE_OUTER_BOUND ( 'NONE', #146, .T. ) ;
#38 = CARTESIAN_POINT ( 'NONE',  ( 4.189777606611760026E-14, -1.469576158976823947E-15, 12.00000000000000000 ) ) ;
#39 = DIRECTION ( 'NONE',  ( 0.0000000000000000000, 1.000000000000000000, 0.0000000000000000000 ) ) ;
#40 = ADVANCED_FACE ( 'NONE', ( #210, #192 ), #168, .T. ) ;
#41 = CARTESIAN_POINT ( 'NONE',  ( -3.784110829618827258E-31, 1.327287407655750661E-32, -1.083812417245412954E-16 ) ) ;
#42 = CIRCLE ( 'NONE', #214, 2.000000000000000888 ) ;
#43 = AXIS2_PLACEMENT_3D ( 'NONE', #171, #114, #75 ) ;
#44 = DATE_AND_TIME ( #25, #22 ) ;
#45 = COORDINATED_UNIVERSAL_TIME_OFFSET ( 1, 0, .AHEAD. ) ;
#46 = DIRECTION ( 'NONE',  ( 1.000000000000000000, 0.0000000000000000000, 0.0000000000000000000 ) ) ;
#47 = APPROVAL_DATE_TIME ( #220, #151 ) ;
#48 = VERTEX_POINT ( 'NONE', #124 ) ;
#49 = APPROVAL_DATE_TIME ( #224, #242 ) ;
#50 = ORIENTED_EDGE ( 'NONE', *, *, #96, .F. ) ;
#51 = EDGE_LOOP ( 'NONE', ( #52 ) ) ;
#52 = ORIENTED_EDGE ( 'NONE', *, *, #226, .T. ) ;
#53 = CALENDAR_DATE ( 2021, 2, 12 ) ;
#54 = AXIS2_PLACEMENT_3D ( 'NONE', #152, #77, #228 ) ;
#55 = EDGE_LOOP ( 'NONE', ( #50 ) ) ;
#56 = CARTESIAN_POINT ( 'NONE',  ( 2.779219145719134403E-13, -9.748188521212932624E-15, 79.60000000000000853 ) ) ;
#57 = EDGE_CURVE ( 'NONE', #235, #235, #42, .T. ) ;
#58 = CARTESIAN_POINT ( 'NONE',  ( 0.0000000000000000000, 0.0000000000000000000, 0.0000000000000000000 ) ) ;
#59 = DIRECTION ( 'NONE',  ( 0.0000000000000000000, 1.000000000000000000, 0.0000000000000000000 ) ) ;
#60 = CC_DESIGN_APPROVAL ( #242, ( #5 ) ) ;
#61 = DIRECTION ( 'NONE',  ( -3.491481338843133355E-15, 1.224646799147353207E-16, -1.000000000000000000 ) ) ;
#62 = PRODUCT ( '321660', '321660', '', ( #101 ) ) ;
#63 = DIRECTION ( 'NONE',  ( -3.491481338843133355E-15, 1.224646799147353207E-16, -1.000000000000000000 ) ) ;
#64 =( LENGTH_UNIT ( ) NAMED_UNIT ( * ) SI_UNIT ( .MILLI., .METRE. ) );
#65 = AXIS2_PLACEMENT_3D ( 'NONE', #80, #34, #20 ) ;
#66 = APPROVAL_PERSON_ORGANIZATION ( #120, #239, #143 ) ;
#67 = DIRECTION ( 'NONE',  ( 4.437626599970568496E-31, 1.000000000000000000, 1.249080843877303337E-16 ) ) ;
#68 = PRODUCT_RELATED_PRODUCT_CATEGORY ( 'detail', '', ( #62 ) ) ;
#69 =( NAMED_UNIT ( * ) PLANE_ANGLE_UNIT ( ) SI_UNIT ( $, .RADIAN. ) );
#70 = APPROVAL_DATE_TIME ( #44, #239 ) ;
#71 = PERSON_AND_ORGANIZATION_ROLE ( 'creator' ) ;
#72 = ORIENTED_EDGE ( 'NONE', *, *, #110, .T. ) ;
#73 = PRODUCT_DEFINITION ( 'UNKNOWN', '', #136, #115 ) ;
#74 = PERSON_AND_ORGANIZATION_ROLE ( 'design_supplier' ) ;
#75 = DIRECTION ( 'NONE',  ( 0.0000000000000000000, 1.000000000000000000, 0.0000000000000000000 ) ) ;
#76 = DIRECTION ( 'NONE',  ( -3.491481338843133355E-15, 1.224646799147353207E-16, -1.000000000000000000 ) ) ;
#77 = DIRECTION ( 'NONE',  ( -3.491481338843133355E-15, 1.224646799147353207E-16, -1.000000000000000000 ) ) ;
#78 = FACE_OUTER_BOUND ( 'NONE', #107, .T. ) ;
#79 = PRODUCT_DEFINITION_SHAPE ( 'NONE', 'NONE',  #73 ) ;
#80 = CARTESIAN_POINT ( 'NONE',  ( 4.189777606611760026E-14, 1.627239364188121088E-32, 12.00000000000000000 ) ) ;
#81 = PERSON_AND_ORGANIZATION ( #208, #238 ) ;
#82 = ADVANCED_FACE ( 'NONE', ( #78 ), #91, .F. ) ;
#83 = COORDINATED_UNIVERSAL_TIME_OFFSET ( 1, 0, .AHEAD. ) ;
#84 = EDGE_CURVE ( 'NONE', #11, #11, #103, .T. ) ;
#85 = CLOSED_SHELL ( 'NONE', ( #123, #140, #164, #40 ) ) ;
#86 = CALENDAR_DATE ( 2021, 2, 12 ) ;
#87 = ORIENTED_EDGE ( 'NONE', *, *, #57, .F. ) ;
#88 = ORIENTED_EDGE ( 'NONE', *, *, #226, .F. ) ;
#89 = FACE_OUTER_BOUND ( 'NONE', #130, .T. ) ;
#90 = AXIS2_PLACEMENT_3D ( 'NONE', #118, #177, #4 ) ;
#91 = PLANE ( 'NONE',  #65 ) ;
#92 = DIRECTION ( 'NONE',  ( -3.491481338843133355E-15, 1.224646799147353207E-16, -1.000000000000000000 ) ) ;
#93 = DIRECTION ( 'NONE',  ( 3.491481338843133355E-15, -1.224646799147353207E-16, 1.000000000000000000 ) ) ;
#94 = DIRECTION ( 'NONE',  ( 4.275831445896958607E-31, 1.000000000000000000, 1.224646799147353207E-16 ) ) ;
#95 = DIRECTION ( 'NONE',  ( -3.491481338843133355E-15, 1.224646799147353207E-16, -1.000000000000000000 ) ) ;
#96 = EDGE_CURVE ( 'NONE', #98, #98, #119, .T. ) ;
#97 = DIRECTION ( 'NONE',  ( -3.491481338843133355E-15, 1.224646799147353207E-16, -1.000000000000000000 ) ) ;
#98 = VERTEX_POINT ( 'NONE', #153 ) ;
#99 = CIRCLE ( 'NONE', #189, 2.170000000000010143 ) ;
#100 =( NAMED_UNIT ( * ) SI_UNIT ( $, .STERADIAN. ) SOLID_ANGLE_UNIT ( ) );
#101 = MECHANICAL_CONTEXT ( 'NONE', #8, 'mechanical' ) ;
#102 = CARTESIAN_POINT ( 'NONE',  ( 4.189777606611760026E-14, 2.170000000000008811, 12.00000000000000000 ) ) ;
#103 = CIRCLE ( 'NONE', #147, 1.770000000000008678 ) ;
#104 = MANIFOLD_SOLID_BREP ( 'Corps-Déplacer/Copier1[1]', #131 ) ;
#105 = CIRCLE ( 'NONE', #43, 1.999999999999991784 ) ;
#106 = PERSON_AND_ORGANIZATION ( #208, #238 ) ;
#107 = EDGE_LOOP ( 'NONE', ( #29 ) ) ;
#108 = ORIENTED_EDGE ( 'NONE', *, *, #84, .F. ) ;
#109 = EDGE_LOOP ( 'NONE', ( #88 ) ) ;
#110 = EDGE_CURVE ( 'NONE', #198, #198, #99, .T. ) ;
#111 = PERSON_AND_ORGANIZATION ( #208, #238 ) ;
#112 = DIRECTION ( 'NONE',  ( -4.275831445896958607E-31, -1.000000000000000000, -1.224646799147353207E-16 ) ) ;
#113 = APPROVAL_PERSON_ORGANIZATION ( #106, #242, #205 ) ;
#114 = DIRECTION ( 'NONE',  ( -3.491481338843133355E-15, 1.224646799147353207E-16, -1.000000000000000000 ) ) ;
#115 = DESIGN_CONTEXT ( 'detailed design', #36, 'design' ) ;
#116 = DIRECTION ( 'NONE',  ( 0.0000000000000000000, 1.000000000000000000, 0.0000000000000000000 ) ) ;
#117 = PLANE ( 'NONE',  #90 ) ;
#118 = CARTESIAN_POINT ( 'NONE',  ( 2.793185071074506684E-13, 1.199807826129472128E-32, 80.00000000000000000 ) ) ;
#119 = CIRCLE ( 'NONE', #54, 2.170000000000010143 ) ;
#120 = PERSON_AND_ORGANIZATION ( #208, #238 ) ;
#121 = CARTESIAN_POINT ( 'NONE',  ( 1.396592535537252750E-15, -4.898587196589410610E-17, 0.3999999999999998002 ) ) ;
#122 = APPROVAL_STATUS ( 'not_yet_approved' ) ;
#123 = ADVANCED_FACE ( 'NONE', ( #172, #232 ), #3, .T. ) ;
#124 = CARTESIAN_POINT ( 'NONE',  ( 4.292583798845204640E-14, 1.999999999999990452, 12.29444863728673987 ) ) ;
#125 = PERSON_AND_ORGANIZATION ( #208, #238 ) ;
#126 = CC_DESIGN_SECURITY_CLASSIFICATION ( #5, ( #136 ) ) ;
#127 = ADVANCED_FACE ( 'NONE', ( #19, #2 ), #28, .T. ) ;
#128 = ORIENTED_EDGE ( 'NONE', *, *, #217, .F. ) ;
#129 = APPROVAL_STATUS ( 'not_yet_approved' ) ;
#130 = EDGE_LOOP ( 'NONE', ( #87 ) ) ;
#131 = CLOSED_SHELL ( 'NONE', ( #82, #127, #211, #7, #170 ) ) ;
#132 =( GEOMETRIC_REPRESENTATION_CONTEXT ( 3 ) GLOBAL_UNCERTAINTY_ASSIGNED_CONTEXT ( ( #173 ) ) GLOBAL_UNIT_ASSIGNED_CONTEXT ( ( #64, #69, #100 ) ) REPRESENTATION_CONTEXT ( 'NONE', 'WORKASPACE' ) );
#133 = SECURITY_CLASSIFICATION_LEVEL ( 'unclassified' ) ;
#134 = CARTESIAN_POINT ( 'NONE',  ( 4.189777606611760026E-14, -1.469576158976823947E-15, 12.00000000000000000 ) ) ;
#135 = CARTESIAN_POINT ( 'NONE',  ( 4.189777606611760026E-14, 1.627239364188121088E-32, 12.00000000000000000 ) ) ;
#136 = PRODUCT_DEFINITION_FORMATION_WITH_SPECIFIED_SOURCE ( 'ANY', '', #62, .NOT_KNOWN. ) ;
#137 = DIRECTION ( 'NONE',  ( -3.491481338843133355E-15, 1.224646799147353207E-16, -1.000000000000000000 ) ) ;
#138 = DIRECTION ( 'NONE',  ( -3.491481338843133355E-15, 1.224646799147353207E-16, -1.000000000000000000 ) ) ;
#139 = DIRECTION ( 'NONE',  ( -3.491481338843133355E-15, 1.224646799147353207E-16, -1.000000000000000000 ) ) ;
#140 = ADVANCED_FACE ( 'NONE', ( #213 ), #9, .T. ) ;
#141 = APPROVAL_STATUS ( 'not_yet_approved' ) ;
#142 = CARTESIAN_POINT ( 'NONE',  ( 2.779219145719134403E-13, 1.999999999999991340, 79.60000000000000853 ) ) ;
#143 = APPROVAL_ROLE ( '' ) ;
#144 = SHAPE_DEFINITION_REPRESENTATION ( #79, #161 ) ;
#145 = PERSON_AND_ORGANIZATION ( #208, #238 ) ;
#146 = EDGE_LOOP ( 'NONE', ( #128 ) ) ;
#147 = AXIS2_PLACEMENT_3D ( 'NONE', #191, #61, #94 ) ;
#148 = DIRECTION ( 'NONE',  ( -3.491481338843133355E-15, 1.224646799147353207E-16, -1.000000000000000000 ) ) ;
#149 = DIRECTION ( 'NONE',  ( 4.275831445896958607E-31, 1.000000000000000000, 1.224646799147353207E-16 ) ) ;
#150 = DIRECTION ( 'NONE',  ( 3.491481338843133355E-15, -1.224646799147353207E-16, 1.000000000000000000 ) ) ;
#151 = APPROVAL ( #141, 'UNSPECIFIED' ) ;
#152 = CARTESIAN_POINT ( 'NONE',  ( 4.189777606611760026E-14, -1.469576158976823947E-15, 12.00000000000000000 ) ) ;
#153 = CARTESIAN_POINT ( 'NONE',  ( 4.189777606611760026E-14, 2.170000000000008811, 12.00000000000000000 ) ) ;
#154 = APPLICATION_PROTOCOL_DEFINITION ( 'international standard', 'config_control_design', 1994, #36 ) ;
#155 = AXIS2_PLACEMENT_3D ( 'NONE', #6, #137, #59 ) ;
#156 = DATE_AND_TIME ( #216, #159 ) ;
#157 = DIRECTION ( 'NONE',  ( 0.0000000000000000000, 0.0000000000000000000, 1.000000000000000000 ) ) ;
#158 = AXIS2_PLACEMENT_3D ( 'NONE', #212, #138, #17 ) ;
#159 = LOCAL_TIME ( 13, 56, 10.00000000000000000, #194 ) ;
#160 = CC_DESIGN_PERSON_AND_ORGANIZATION_ASSIGNMENT ( #125, #187, ( #5 ) ) ;
#161 = ADVANCED_BREP_SHAPE_REPRESENTATION ( '321660', ( #104, #30, #162 ), #132 ) ;
#162 = AXIS2_PLACEMENT_3D ( 'NONE', #219, #157, #46 ) ;
#163 = EDGE_LOOP ( 'NONE', ( #204 ) ) ;
#164 = ADVANCED_FACE ( 'NONE', ( #174 ), #209, .T. ) ;
#165 = DATE_AND_TIME ( #86, #197 ) ;
#166 = ORIENTED_EDGE ( 'NONE', *, *, #84, .T. ) ;
#167 = FACE_BOUND ( 'NONE', #185, .T. ) ;
#168 = CONICAL_SURFACE ( 'NONE', #182, 1.770000000000008678, 0.7853981633974498333 ) ;
#169 = CC_DESIGN_APPROVAL ( #239, ( #73 ) ) ;
#170 = ADVANCED_FACE ( 'NONE', ( #37 ), #117, .F. ) ;
#171 = CARTESIAN_POINT ( 'NONE',  ( 4.292583798845204640E-14, -1.505635717093474465E-15, 12.29444863728673987 ) ) ;
#172 = FACE_OUTER_BOUND ( 'NONE', #203, .T. ) ;
#173 = UNCERTAINTY_MEASURE_WITH_UNIT (LENGTH_MEASURE( 1.000000000000000082E-05 ), #64, 'distance_accuracy_value', 'NONE');
#174 = FACE_OUTER_BOUND ( 'NONE', #31, .T. ) ;
#175 = CC_DESIGN_PERSON_AND_ORGANIZATION_ASSIGNMENT ( #145, #74, ( #136 ) ) ;
#176 = FACE_OUTER_BOUND ( 'NONE', #241, .T. ) ;
#177 = DIRECTION ( 'NONE',  ( -3.491481338843133355E-15, 1.224646799147353207E-16, -1.000000000000000000 ) ) ;
#178 = DATE_TIME_ROLE ( 'creation_date' ) ;
#179 = CC_DESIGN_PERSON_AND_ORGANIZATION_ASSIGNMENT ( #81, #234, ( #73 ) ) ;
#180 = CARTESIAN_POINT ( 'NONE',  ( 1.396592535537253737E-15, 2.170000000000010143, 0.4000000000000000777 ) ) ;
#181 = VERTEX_POINT ( 'NONE', #13 ) ;
#182 = AXIS2_PLACEMENT_3D ( 'NONE', #227, #150, #231 ) ;
#183 = CIRCLE ( 'NONE', #155, 1.600000000000000977 ) ;
#184 = COORDINATED_UNIVERSAL_TIME_OFFSET ( 1, 0, .AHEAD. ) ;
#185 = EDGE_LOOP ( 'NONE', ( #243 ) ) ;
#186 = AXIS2_PLACEMENT_3D ( 'NONE', #121, #97, #67 ) ;
#187 = PERSON_AND_ORGANIZATION_ROLE ( 'classification_officer' ) ;
#188 = ORIENTED_EDGE ( 'NONE', *, *, #199, .F. ) ;
#189 = AXIS2_PLACEMENT_3D ( 'NONE', #134, #95, #39 ) ;
#190 = CYLINDRICAL_SURFACE ( 'NONE', #221, 1.999999999999996669 ) ;
#191 = CARTESIAN_POINT ( 'NONE',  ( -7.568221659237654516E-31, 2.654574815311501322E-32, -2.167624834490825908E-16 ) ) ;
#192 = FACE_BOUND ( 'NONE', #16, .T. ) ;
#193 = DIRECTION ( 'NONE',  ( 0.0000000000000000000, 1.000000000000000000, 0.0000000000000000000 ) ) ;
#194 = COORDINATED_UNIVERSAL_TIME_OFFSET ( 1, 0, .AHEAD. ) ;
#195 = CC_DESIGN_DATE_AND_TIME_ASSIGNMENT ( #156, #178, ( #73 ) ) ;
#196 = CARTESIAN_POINT ( 'NONE',  ( 0.0000000000000000000, 1.770000000000008678, 0.0000000000000000000 ) ) ;
#197 = LOCAL_TIME ( 13, 56, 10.00000000000000000, #223 ) ;
#198 = VERTEX_POINT ( 'NONE', #102 ) ;
#199 = EDGE_CURVE ( 'NONE', #48, #48, #105, .T. ) ;
#200 = VERTEX_POINT ( 'NONE', #180 ) ;
#201 = DATE_TIME_ROLE ( 'classification_date' ) ;
#202 = AXIS2_PLACEMENT_3D ( 'NONE', #58, #63, #207 ) ;
#203 = EDGE_LOOP ( 'NONE', ( #72 ) ) ;
#204 = ORIENTED_EDGE ( 'NONE', *, *, #110, .F. ) ;
#205 = APPROVAL_ROLE ( '' ) ;
#206 = EDGE_LOOP ( 'NONE', ( #188 ) ) ;
#207 = DIRECTION ( 'NONE',  ( 4.275831445896958607E-31, 1.000000000000000000, 1.224646799147352961E-16 ) ) ;
#208 = PERSON ( 'UNSPECIFIED', 'UNSPECIFIED', 'UNSPECIFIED', ('UNSPECIFIED'), ('UNSPECIFIED'), ('UNSPECIFIED') ) ;
#209 = PLANE ( 'NONE',  #230 ) ;
#210 = FACE_OUTER_BOUND ( 'NONE', #51, .T. ) ;
#211 = ADVANCED_FACE ( 'NONE', ( #23, #176 ), #190, .T. ) ;
#212 = CARTESIAN_POINT ( 'NONE',  ( 2.793185071074506684E-13, -9.797174393178826052E-15, 80.00000000000000000 ) ) ;
#213 = FACE_OUTER_BOUND ( 'NONE', #163, .T. ) ;
#214 = AXIS2_PLACEMENT_3D ( 'NONE', #56, #148, #193 ) ;
#215 = LOCAL_TIME ( 13, 56, 10.00000000000000000, #45 ) ;
#216 = CALENDAR_DATE ( 2021, 2, 12 ) ;
#217 = EDGE_CURVE ( 'NONE', #181, #181, #183, .T. ) ;
#218 = APPROVAL_ROLE ( '' ) ;
#219 = CARTESIAN_POINT ( 'NONE',  ( 0.0000000000000000000, 0.0000000000000000000, 0.0000000000000000000 ) ) ;
#220 = DATE_AND_TIME ( #236, #215 ) ;
#221 = AXIS2_PLACEMENT_3D ( 'NONE', #18, #92, #229 ) ;
#222 = CC_DESIGN_APPROVAL ( #151, ( #136 ) ) ;
#223 = COORDINATED_UNIVERSAL_TIME_OFFSET ( 1, 0, .AHEAD. ) ;
#224 = DATE_AND_TIME ( #53, #1 ) ;
#225 = ORIENTED_EDGE ( 'NONE', *, *, #57, .T. ) ;
#226 = EDGE_CURVE ( 'NONE', #200, #200, #240, .T. ) ;
#227 = CARTESIAN_POINT ( 'NONE',  ( -7.568221659237654516E-31, 2.654574815311501322E-32, -2.167624834490825908E-16 ) ) ;
#228 = DIRECTION ( 'NONE',  ( 0.0000000000000000000, 1.000000000000000000, 0.0000000000000000000 ) ) ;
#229 = DIRECTION ( 'NONE',  ( 4.275831445896958607E-31, 1.000000000000000000, 1.224646799147353207E-16 ) ) ;
#230 = AXIS2_PLACEMENT_3D ( 'NONE', #41, #76, #149 ) ;
#231 = DIRECTION ( 'NONE',  ( -4.275831445896958607E-31, -1.000000000000000000, -1.224646799147353207E-16 ) ) ;
#232 = FACE_OUTER_BOUND ( 'NONE', #109, .T. ) ;
#233 = APPROVAL_PERSON_ORGANIZATION ( #10, #151, #218 ) ;
#234 = PERSON_AND_ORGANIZATION_ROLE ( 'creator' ) ;
#235 = VERTEX_POINT ( 'NONE', #142 ) ;
#236 = CALENDAR_DATE ( 2021, 2, 12 ) ;
#237 = CC_DESIGN_DATE_AND_TIME_ASSIGNMENT ( #165, #201, ( #5 ) ) ;
#238 = ORGANIZATION ( 'UNSPECIFIED', 'UNSPECIFIED', '' ) ;
#239 = APPROVAL ( #122, 'UNSPECIFIED' ) ;
#240 = CIRCLE ( 'NONE', #186, 2.170000000000010143 ) ;
#241 = EDGE_LOOP ( 'NONE', ( #225 ) ) ;
#242 = APPROVAL ( #129, 'UNSPECIFIED' ) ;
#243 = ORIENTED_EDGE ( 'NONE', *, *, #217, .T. ) ;
ENDSEC;
END-ISO-10303-21;
