ISO-10303-21;
HEADER;
FILE_DESCRIPTION (( 'STEP AP203' ),
    '1' );
FILE_NAME ('321659.step',
    '2021-12-02T12:56:10',
    ( '' ),
    ( '' ),
    'SwSTEP 2.0',
    'SolidWorks 2019',
    '' );
FILE_SCHEMA (( 'CONFIG_CONTROL_DESIGN' ));
ENDSEC;

DATA;
#1 = AXIS2_PLACEMENT_3D ( 'NONE', #118, #142, #119 ) ;
#2 = DATE_AND_TIME ( #59, #7 ) ;
#3 = ORIENTED_EDGE ( 'NONE', *, *, #242, .T. ) ;
#4 = EDGE_CURVE ( 'NONE', #36, #36, #30, .T. ) ;
#5 = AXIS2_PLACEMENT_3D ( 'NONE', #49, #178, #50 ) ;
#6 = FACE_OUTER_BOUND ( 'NONE', #210, .T. ) ;
#7 = LOCAL_TIME ( 13, 56, 10.00000000000000000, #177 ) ;
#8 = FACE_BOUND ( 'NONE', #213, .T. ) ;
#9 = DIRECTION ( 'NONE',  ( 0.0000000000000000000, 1.000000000000000000, 0.0000000000000000000 ) ) ;
#10 = EDGE_CURVE ( 'NONE', #15, #15, #208, .T. ) ;
#11 = DIRECTION ( 'NONE',  ( -3.491481338843133355E-15, 1.224646799147353207E-16, -1.000000000000000000 ) ) ;
#12 = AXIS2_PLACEMENT_3D ( 'NONE', #70, #148, #220 ) ;
#13 = PLANE ( 'NONE',  #100 ) ;
#14 =( NAMED_UNIT ( * ) SI_UNIT ( $, .STERADIAN. ) SOLID_ANGLE_UNIT ( ) );
#15 = VERTEX_POINT ( 'NONE', #165 ) ;
#16 = CC_DESIGN_APPROVAL ( #234, ( #74 ) ) ;
#17 = PERSON_AND_ORGANIZATION ( #152, #62 ) ;
#18 = UNCERTAINTY_MEASURE_WITH_UNIT (LENGTH_MEASURE( 1.000000000000000082E-05 ), #32, 'distance_accuracy_value', 'NONE');
#19 = CALENDAR_DATE ( 2021, 2, 12 ) ;
#20 = DATE_AND_TIME ( #53, #84 ) ;
#21 = APPROVAL_DATE_TIME ( #157, #234 ) ;
#22 = EDGE_LOOP ( 'NONE', ( #3 ) ) ;
#23 = AXIS2_PLACEMENT_3D ( 'NONE', #105, #69, #201 ) ;
#24 = FACE_OUTER_BOUND ( 'NONE', #42, .T. ) ;
#25 = DIRECTION ( 'NONE',  ( -3.491481338843133355E-15, 1.224646799147353207E-16, -1.000000000000000000 ) ) ;
#26 = AXIS2_PLACEMENT_3D ( 'NONE', #219, #47, #199 ) ;
#27 = DIRECTION ( 'NONE',  ( 0.0000000000000000000, 1.000000000000000000, 0.0000000000000000000 ) ) ;
#28 = FACE_OUTER_BOUND ( 'NONE', #82, .T. ) ;
#29 = DIRECTION ( 'NONE',  ( -4.275831445896958607E-31, -1.000000000000000000, -1.224646799147353207E-16 ) ) ;
#30 = CIRCLE ( 'NONE', #1, 1.765000000000008562 ) ;
#31 = PERSON_AND_ORGANIZATION ( #152, #62 ) ;
#32 =( LENGTH_UNIT ( ) NAMED_UNIT ( * ) SI_UNIT ( .MILLI., .METRE. ) );
#33 = COORDINATED_UNIVERSAL_TIME_OFFSET ( 1, 0, .AHEAD. ) ;
#34 = COORDINATED_UNIVERSAL_TIME_OFFSET ( 1, 0, .AHEAD. ) ;
#35 = PRODUCT_DEFINITION ( 'UNKNOWN', '', #198, #166 ) ;
#36 = VERTEX_POINT ( 'NONE', #92 ) ;
#37 = APPROVAL ( #150, 'UNSPECIFIED' ) ;
#38 = LOCAL_TIME ( 13, 56, 10.00000000000000000, #60 ) ;
#39 = ORIENTED_EDGE ( 'NONE', *, *, #10, .F. ) ;
#40 = EDGE_LOOP ( 'NONE', ( #80 ) ) ;
#41 = EDGE_CURVE ( 'NONE', #225, #225, #121, .T. ) ;
#42 = EDGE_LOOP ( 'NONE', ( #39 ) ) ;
#43 = ORIENTED_EDGE ( 'NONE', *, *, #4, .F. ) ;
#44 = AXIS2_PLACEMENT_3D ( 'NONE', #99, #25, #218 ) ;
#45 = ORIENTED_EDGE ( 'NONE', *, *, #217, .T. ) ;
#46 = FACE_BOUND ( 'NONE', #156, .T. ) ;
#47 = DIRECTION ( 'NONE',  ( -3.491481338843133355E-15, 1.224646799147353207E-16, -1.000000000000000000 ) ) ;
#48 = CC_DESIGN_APPROVAL ( #134, ( #198 ) ) ;
#49 = CARTESIAN_POINT ( 'NONE',  ( -7.546842502008168926E-31, 2.647076016398191432E-32, -2.161501600495089032E-16 ) ) ;
#50 = DIRECTION ( 'NONE',  ( -4.275831445896958607E-31, -1.000000000000000000, -1.224646799147353207E-16 ) ) ;
#51 = DIRECTION ( 'NONE',  ( 1.000000000000000000, 0.0000000000000000000, 0.0000000000000000000 ) ) ;
#52 =( GEOMETRIC_REPRESENTATION_CONTEXT ( 3 ) GLOBAL_UNCERTAINTY_ASSIGNED_CONTEXT ( ( #18 ) ) GLOBAL_UNIT_ASSIGNED_CONTEXT ( ( #32, #241, #14 ) ) REPRESENTATION_CONTEXT ( 'NONE', 'WORKASPACE' ) );
#53 = CALENDAR_DATE ( 2021, 2, 12 ) ;
#54 = APPLICATION_PROTOCOL_DEFINITION ( 'international standard', 'config_control_design', 1994, #125 ) ;
#55 = CC_DESIGN_DATE_AND_TIME_ASSIGNMENT ( #168, #170, ( #35 ) ) ;
#56 = PERSON_AND_ORGANIZATION ( #152, #62 ) ;
#57 = CLOSED_SHELL ( 'NONE', ( #75, #183, #83, #169, #79 ) ) ;
#58 = DIRECTION ( 'NONE',  ( 0.0000000000000000000, 1.000000000000000000, 0.0000000000000000000 ) ) ;
#59 = CALENDAR_DATE ( 2021, 2, 12 ) ;
#60 = COORDINATED_UNIVERSAL_TIME_OFFSET ( 1, 0, .AHEAD. ) ;
#61 = APPROVAL_STATUS ( 'not_yet_approved' ) ;
#62 = ORGANIZATION ( 'UNSPECIFIED', 'UNSPECIFIED', '' ) ;
#63 = SHAPE_DEFINITION_REPRESENTATION ( #143, #104 ) ;
#64 = CONICAL_SURFACE ( 'NONE', #78, 1.600000000000000977, 0.7853981633974512766 ) ;
#65 = PLANE ( 'NONE',  #12 ) ;
#66 = CARTESIAN_POINT ( 'NONE',  ( 1.396592535537253145E-15, -4.898587196589411843E-17, 0.3999999999999999112 ) ) ;
#67 = DIRECTION ( 'NONE',  ( -3.491481338843133355E-15, 1.224646799147353207E-16, -1.000000000000000000 ) ) ;
#68 = AXIS2_PLACEMENT_3D ( 'NONE', #236, #67, #146 ) ;
#69 = DIRECTION ( 'NONE',  ( -3.491481338843133355E-15, 1.224646799147353207E-16, -1.000000000000000000 ) ) ;
#70 = CARTESIAN_POINT ( 'NONE',  ( 4.189777606611760026E-14, 1.623489964731466416E-32, 12.00000000000000000 ) ) ;
#71 = AXIS2_PLACEMENT_3D ( 'NONE', #160, #195, #147 ) ;
#72 = APPROVAL_STATUS ( 'not_yet_approved' ) ;
#73 = APPROVAL_DATE_TIME ( #243, #134 ) ;
#74 = SECURITY_CLASSIFICATION ( '', '', #109 ) ;
#75 = ADVANCED_FACE ( 'NONE', ( #200 ), #65, .F. ) ;
#76 = EDGE_LOOP ( 'NONE', ( #116 ) ) ;
#77 = PERSON_AND_ORGANIZATION_ROLE ( 'creator' ) ;
#78 = AXIS2_PLACEMENT_3D ( 'NONE', #86, #161, #27 ) ;
#79 = ADVANCED_FACE ( 'NONE', ( #222 ), #185, .F. ) ;
#80 = ORIENTED_EDGE ( 'NONE', *, *, #97, .T. ) ;
#81 = APPROVAL_ROLE ( '' ) ;
#82 = EDGE_LOOP ( 'NONE', ( #153 ) ) ;
#83 = ADVANCED_FACE ( 'NONE', ( #24, #85 ), #182, .T. ) ;
#84 = LOCAL_TIME ( 13, 56, 10.00000000000000000, #186 ) ;
#85 = FACE_OUTER_BOUND ( 'NONE', #22, .T. ) ;
#86 = CARTESIAN_POINT ( 'NONE',  ( 2.793185071074506684E-13, -9.797174393178826052E-15, 80.00000000000000000 ) ) ;
#87 = CARTESIAN_POINT ( 'NONE',  ( 4.189777606611760026E-14, -1.469576158976823947E-15, 12.00000000000000000 ) ) ;
#88 = CC_DESIGN_DATE_AND_TIME_ASSIGNMENT ( #2, #112, ( #74 ) ) ;
#89 = PLANE ( 'NONE',  #68 ) ;
#90 = CIRCLE ( 'NONE', #140, 2.165000000000009805 ) ;
#91 = FACE_OUTER_BOUND ( 'NONE', #113, .T. ) ;
#92 = CARTESIAN_POINT ( 'NONE',  ( 0.0000000000000000000, 1.765000000000008562, 0.0000000000000000000 ) ) ;
#93 = CLOSED_SHELL ( 'NONE', ( #172, #137, #224, #123 ) ) ;
#94 = VERTEX_POINT ( 'NONE', #189 ) ;
#95 = PRODUCT_RELATED_PRODUCT_CATEGORY ( 'detail', '', ( #98 ) ) ;
#96 = APPLICATION_PROTOCOL_DEFINITION ( 'international standard', 'config_control_design', 1994, #136 ) ;
#97 = EDGE_CURVE ( 'NONE', #94, #94, #90, .T. ) ;
#98 = PRODUCT ( '321659', '321659', '', ( #127 ) ) ;
#99 = CARTESIAN_POINT ( 'NONE',  ( 0.0000000000000000000, 0.0000000000000000000, 0.0000000000000000000 ) ) ;
#100 = AXIS2_PLACEMENT_3D ( 'NONE', #120, #180, #29 ) ;
#101 = DIRECTION ( 'NONE',  ( -3.491481338843133355E-15, 1.224646799147353207E-16, -1.000000000000000000 ) ) ;
#102 = CYLINDRICAL_SURFACE ( 'NONE', #26, 2.165000000000009805 ) ;
#103 = DIRECTION ( 'NONE',  ( -3.491481338843133355E-15, 1.224646799147353207E-16, -1.000000000000000000 ) ) ;
#104 = ADVANCED_BREP_SHAPE_REPRESENTATION ( '321659', ( #110, #190, #235 ), #52 ) ;
#105 = CARTESIAN_POINT ( 'NONE',  ( 2.793185071074506684E-13, -9.797174393178826052E-15, 80.00000000000000000 ) ) ;
#106 = PERSON_AND_ORGANIZATION_ROLE ( 'design_owner' ) ;
#107 = APPROVAL_DATE_TIME ( #20, #37 ) ;
#108 = CARTESIAN_POINT ( 'NONE',  ( 0.0000000000000000000, 0.0000000000000000000, 0.0000000000000000000 ) ) ;
#109 = SECURITY_CLASSIFICATION_LEVEL ( 'unclassified' ) ;
#110 = MANIFOLD_SOLID_BREP ( 'Corps-Déplacer/Copier1[1]', #57 ) ;
#111 = CC_DESIGN_APPROVAL ( #37, ( #35 ) ) ;
#112 = DATE_TIME_ROLE ( 'classification_date' ) ;
#113 = EDGE_LOOP ( 'NONE', ( #214 ) ) ;
#114 = PERSON_AND_ORGANIZATION_ROLE ( 'classification_officer' ) ;
#115 = ORIENTED_EDGE ( 'NONE', *, *, #41, .T. ) ;
#116 = ORIENTED_EDGE ( 'NONE', *, *, #4, .T. ) ;
#117 = AXIS2_PLACEMENT_3D ( 'NONE', #87, #11, #162 ) ;
#118 = CARTESIAN_POINT ( 'NONE',  ( -7.546842502008168926E-31, 2.647076016398191432E-32, -2.161501600495089032E-16 ) ) ;
#119 = DIRECTION ( 'NONE',  ( 4.275831445896958607E-31, 1.000000000000000000, 1.224646799147353207E-16 ) ) ;
#120 = CARTESIAN_POINT ( 'NONE',  ( 4.189777606611760026E-14, 1.623489964731466416E-32, 12.00000000000000000 ) ) ;
#121 = CIRCLE ( 'NONE', #23, 1.600000000000000977 ) ;
#122 = FACE_BOUND ( 'NONE', #193, .T. ) ;
#123 = ADVANCED_FACE ( 'NONE', ( #6, #46 ), #211, .T. ) ;
#124 = CARTESIAN_POINT ( 'NONE',  ( 4.189777606611760026E-14, -1.469576158976823947E-15, 12.00000000000000000 ) ) ;
#125 = APPLICATION_CONTEXT ( 'configuration controlled 3d designs of mechanical parts and assemblies' ) ;
#126 = DIRECTION ( 'NONE',  ( 4.447875160247637718E-31, 1.000000000000000000, 1.251965557142609151E-16 ) ) ;
#127 = MECHANICAL_CONTEXT ( 'NONE', #125, 'mechanical' ) ;
#128 = EDGE_CURVE ( 'NONE', #238, #238, #139, .T. ) ;
#129 = CARTESIAN_POINT ( 'NONE',  ( 4.189777606611760026E-14, 2.165000000000008473, 12.00000000000000000 ) ) ;
#130 = CALENDAR_DATE ( 2021, 2, 12 ) ;
#131 = APPROVAL_ROLE ( '' ) ;
#132 = VERTEX_POINT ( 'NONE', #129 ) ;
#133 = ORIENTED_EDGE ( 'NONE', *, *, #41, .F. ) ;
#134 = APPROVAL ( #72, 'UNSPECIFIED' ) ;
#135 = ORIENTED_EDGE ( 'NONE', *, *, #128, .T. ) ;
#136 = APPLICATION_CONTEXT ( 'configuration controlled 3d designs of mechanical parts and assemblies' ) ;
#137 = ADVANCED_FACE ( 'NONE', ( #28 ), #13, .T. ) ;
#138 = EDGE_LOOP ( 'NONE', ( #176 ) ) ;
#139 = CIRCLE ( 'NONE', #171, 2.165000000000009805 ) ;
#140 = AXIS2_PLACEMENT_3D ( 'NONE', #163, #101, #221 ) ;
#141 = CC_DESIGN_SECURITY_CLASSIFICATION ( #74, ( #198 ) ) ;
#142 = DIRECTION ( 'NONE',  ( -3.491481338843133355E-15, 1.224646799147353207E-16, -1.000000000000000000 ) ) ;
#143 = PRODUCT_DEFINITION_SHAPE ( 'NONE', 'NONE',  #35 ) ;
#144 = FACE_OUTER_BOUND ( 'NONE', #192, .T. ) ;
#145 = CC_DESIGN_PERSON_AND_ORGANIZATION_ASSIGNMENT ( #155, #77, ( #198 ) ) ;
#146 = DIRECTION ( 'NONE',  ( 4.275831445896958607E-31, 1.000000000000000000, 1.224646799147353207E-16 ) ) ;
#147 = DIRECTION ( 'NONE',  ( 4.275831445896958607E-31, 1.000000000000000000, 1.224646799147353207E-16 ) ) ;
#148 = DIRECTION ( 'NONE',  ( 3.491481338843133355E-15, -1.224646799147353207E-16, 1.000000000000000000 ) ) ;
#149 = PERSON_AND_ORGANIZATION_ROLE ( 'creator' ) ;
#150 = APPROVAL_STATUS ( 'not_yet_approved' ) ;
#151 = CARTESIAN_POINT ( 'NONE',  ( 2.793185071074506684E-13, 1.599999999999991207, 80.00000000000000000 ) ) ;
#152 = PERSON ( 'UNSPECIFIED', 'UNSPECIFIED', 'UNSPECIFIED', ('UNSPECIFIED'), ('UNSPECIFIED'), ('UNSPECIFIED') ) ;
#153 = ORIENTED_EDGE ( 'NONE', *, *, #217, .F. ) ;
#154 = APPROVAL_PERSON_ORGANIZATION ( #31, #37, #188 ) ;
#155 = PERSON_AND_ORGANIZATION ( #152, #62 ) ;
#156 = EDGE_LOOP ( 'NONE', ( #43 ) ) ;
#157 = DATE_AND_TIME ( #173, #38 ) ;
#158 = ORIENTED_EDGE ( 'NONE', *, *, #10, .T. ) ;
#159 = CIRCLE ( 'NONE', #215, 2.000000000000000888 ) ;
#160 = CARTESIAN_POINT ( 'NONE',  ( 2.793185071074506684E-13, 1.199807826129472128E-32, 80.00000000000000000 ) ) ;
#161 = DIRECTION ( 'NONE',  ( -3.491481338843133355E-15, 1.224646799147353207E-16, -1.000000000000000000 ) ) ;
#162 = DIRECTION ( 'NONE',  ( 0.0000000000000000000, 1.000000000000000000, 0.0000000000000000000 ) ) ;
#163 = CARTESIAN_POINT ( 'NONE',  ( 4.189777606611760026E-14, -1.469576158976823947E-15, 12.00000000000000000 ) ) ;
#164 = DIRECTION ( 'NONE',  ( -3.491481338843133355E-15, 1.224646799147353207E-16, -1.000000000000000000 ) ) ;
#165 = CARTESIAN_POINT ( 'NONE',  ( 4.289560087308926504E-14, 1.999999999999990452, 12.28578838324889588 ) ) ;
#166 = DESIGN_CONTEXT ( 'detailed design', #136, 'design' ) ;
#167 = APPROVAL_PERSON_ORGANIZATION ( #212, #234, #81 ) ;
#168 = DATE_AND_TIME ( #130, #240 ) ;
#169 = ADVANCED_FACE ( 'NONE', ( #91, #8 ), #64, .T. ) ;
#170 = DATE_TIME_ROLE ( 'creation_date' ) ;
#171 = AXIS2_PLACEMENT_3D ( 'NONE', #66, #197, #126 ) ;
#172 = ADVANCED_FACE ( 'NONE', ( #232, #144 ), #102, .T. ) ;
#173 = CALENDAR_DATE ( 2021, 2, 12 ) ;
#174 = PERSON_AND_ORGANIZATION ( #152, #62 ) ;
#175 = EDGE_LOOP ( 'NONE', ( #45 ) ) ;
#176 = ORIENTED_EDGE ( 'NONE', *, *, #97, .F. ) ;
#177 = COORDINATED_UNIVERSAL_TIME_OFFSET ( 1, 0, .AHEAD. ) ;
#178 = DIRECTION ( 'NONE',  ( 3.491481338843133355E-15, -1.224646799147353207E-16, 1.000000000000000000 ) ) ;
#179 = CC_DESIGN_PERSON_AND_ORGANIZATION_ASSIGNMENT ( #56, #106, ( #98 ) ) ;
#180 = DIRECTION ( 'NONE',  ( 3.491481338843133355E-15, -1.224646799147353207E-16, 1.000000000000000000 ) ) ;
#181 = FACE_OUTER_BOUND ( 'NONE', #138, .T. ) ;
#182 = CYLINDRICAL_SURFACE ( 'NONE', #44, 1.999999999999996669 ) ;
#183 = ADVANCED_FACE ( 'NONE', ( #122, #181 ), #194, .T. ) ;
#184 = LOCAL_TIME ( 13, 56, 10.00000000000000000, #34 ) ;
#185 = PLANE ( 'NONE',  #71 ) ;
#186 = COORDINATED_UNIVERSAL_TIME_OFFSET ( 1, 0, .AHEAD. ) ;
#187 = CARTESIAN_POINT ( 'NONE',  ( 1.396592535537254131E-15, 2.165000000000009805, 0.4000000000000001887 ) ) ;
#188 = APPROVAL_ROLE ( '' ) ;
#189 = CARTESIAN_POINT ( 'NONE',  ( 4.189777606611760026E-14, 2.165000000000008473, 12.00000000000000000 ) ) ;
#190 = MANIFOLD_SOLID_BREP ( 'Corps-Déplacer/Copier1[2]', #93 ) ;
#191 = PERSON_AND_ORGANIZATION ( #152, #62 ) ;
#192 = EDGE_LOOP ( 'NONE', ( #216 ) ) ;
#193 = EDGE_LOOP ( 'NONE', ( #158 ) ) ;
#194 = CONICAL_SURFACE ( 'NONE', #230, 2.165000000000009805, 0.5235987755983005920 ) ;
#195 = DIRECTION ( 'NONE',  ( -3.491481338843133355E-15, 1.224646799147353207E-16, -1.000000000000000000 ) ) ;
#196 = CC_DESIGN_PERSON_AND_ORGANIZATION_ASSIGNMENT ( #191, #228, ( #198 ) ) ;
#197 = DIRECTION ( 'NONE',  ( -3.491481338843133355E-15, 1.224646799147353207E-16, -1.000000000000000000 ) ) ;
#198 = PRODUCT_DEFINITION_FORMATION_WITH_SPECIFIED_SOURCE ( 'ANY', '', #98, .NOT_KNOWN. ) ;
#199 = DIRECTION ( 'NONE',  ( 4.275831445896958607E-31, 1.000000000000000000, 1.224646799147353207E-16 ) ) ;
#200 = FACE_OUTER_BOUND ( 'NONE', #40, .T. ) ;
#201 = DIRECTION ( 'NONE',  ( 0.0000000000000000000, 1.000000000000000000, 0.0000000000000000000 ) ) ;
#202 = CIRCLE ( 'NONE', #117, 2.165000000000009805 ) ;
#203 = CARTESIAN_POINT ( 'NONE',  ( 2.779219145719134403E-13, -9.748188521212932624E-15, 79.60000000000000853 ) ) ;
#204 = VERTEX_POINT ( 'NONE', #223 ) ;
#205 = CC_DESIGN_PERSON_AND_ORGANIZATION_ASSIGNMENT ( #17, #149, ( #35 ) ) ;
#206 = PERSON_AND_ORGANIZATION ( #152, #62 ) ;
#207 = DIRECTION ( 'NONE',  ( 0.0000000000000000000, 0.0000000000000000000, 1.000000000000000000 ) ) ;
#208 = CIRCLE ( 'NONE', #227, 1.999999999999991784 ) ;
#209 = DIRECTION ( 'NONE',  ( -3.491481338843133355E-15, 1.224646799147353207E-16, -1.000000000000000000 ) ) ;
#210 = EDGE_LOOP ( 'NONE', ( #135 ) ) ;
#211 = CONICAL_SURFACE ( 'NONE', #5, 1.765000000000008562, 0.7853981633974497223 ) ;
#212 = PERSON_AND_ORGANIZATION ( #152, #62 ) ;
#213 = EDGE_LOOP ( 'NONE', ( #115 ) ) ;
#214 = ORIENTED_EDGE ( 'NONE', *, *, #242, .F. ) ;
#215 = AXIS2_PLACEMENT_3D ( 'NONE', #203, #209, #58 ) ;
#216 = ORIENTED_EDGE ( 'NONE', *, *, #128, .F. ) ;
#217 = EDGE_CURVE ( 'NONE', #132, #132, #202, .T. ) ;
#218 = DIRECTION ( 'NONE',  ( 4.275831445896958607E-31, 1.000000000000000000, 1.224646799147353207E-16 ) ) ;
#219 = CARTESIAN_POINT ( 'NONE',  ( 0.0000000000000000000, 0.0000000000000000000, 0.0000000000000000000 ) ) ;
#220 = DIRECTION ( 'NONE',  ( -4.275831445896958607E-31, -1.000000000000000000, -1.224646799147353207E-16 ) ) ;
#221 = DIRECTION ( 'NONE',  ( 0.0000000000000000000, 1.000000000000000000, 0.0000000000000000000 ) ) ;
#222 = FACE_OUTER_BOUND ( 'NONE', #229, .T. ) ;
#223 = CARTESIAN_POINT ( 'NONE',  ( 2.779219145719134403E-13, 1.999999999999991340, 79.60000000000000853 ) ) ;
#224 = ADVANCED_FACE ( 'NONE', ( #233 ), #89, .T. ) ;
#225 = VERTEX_POINT ( 'NONE', #151 ) ;
#226 = APPROVAL_PERSON_ORGANIZATION ( #206, #134, #131 ) ;
#227 = AXIS2_PLACEMENT_3D ( 'NONE', #231, #164, #237 ) ;
#228 = PERSON_AND_ORGANIZATION_ROLE ( 'design_supplier' ) ;
#229 = EDGE_LOOP ( 'NONE', ( #133 ) ) ;
#230 = AXIS2_PLACEMENT_3D ( 'NONE', #124, #103, #9 ) ;
#231 = CARTESIAN_POINT ( 'NONE',  ( 4.289560087308926504E-14, -1.504575141854749421E-15, 12.28578838324889588 ) ) ;
#232 = FACE_OUTER_BOUND ( 'NONE', #175, .T. ) ;
#233 = FACE_OUTER_BOUND ( 'NONE', #76, .T. ) ;
#234 = APPROVAL ( #61, 'UNSPECIFIED' ) ;
#235 = AXIS2_PLACEMENT_3D ( 'NONE', #108, #207, #51 ) ;
#236 = CARTESIAN_POINT ( 'NONE',  ( -3.773421251004084463E-31, 1.323538008199095716E-32, -1.080750800247544516E-16 ) ) ;
#237 = DIRECTION ( 'NONE',  ( 0.0000000000000000000, 1.000000000000000000, 0.0000000000000000000 ) ) ;
#238 = VERTEX_POINT ( 'NONE', #187 ) ;
#239 = CC_DESIGN_PERSON_AND_ORGANIZATION_ASSIGNMENT ( #174, #114, ( #74 ) ) ;
#240 = LOCAL_TIME ( 13, 56, 10.00000000000000000, #33 ) ;
#241 =( NAMED_UNIT ( * ) PLANE_ANGLE_UNIT ( ) SI_UNIT ( $, .RADIAN. ) );
#242 = EDGE_CURVE ( 'NONE', #204, #204, #159, .T. ) ;
#243 = DATE_AND_TIME ( #19, #184 ) ;
ENDSEC;
END-ISO-10303-21;
