ISO-10303-21;
HEADER;
FILE_DESCRIPTION (( 'STEP AP203' ),
    '1' );
FILE_NAME ('321658.step',
    '2021-12-02T12:56:09',
    ( '' ),
    ( '' ),
    'SwSTEP 2.0',
    'SolidWorks 2019',
    '' );
FILE_SCHEMA (( 'CONFIG_CONTROL_DESIGN' ));
ENDSEC;

DATA;
#1 = CARTESIAN_POINT ( 'NONE',  ( 4.189777606611760026E-14, 1.619740565274808187E-32, 12.00000000000000000 ) ) ;
#2 = VERTEX_POINT ( 'NONE', #195 ) ;
#3 = CARTESIAN_POINT ( 'NONE',  ( 0.0000000000000000000, 0.0000000000000000000, 0.0000000000000000000 ) ) ;
#4 = CC_DESIGN_PERSON_AND_ORGANIZATION_ASSIGNMENT ( #26, #123, ( #38 ) ) ;
#5 = DIRECTION ( 'NONE',  ( -4.275831445896958607E-31, -1.000000000000000000, -1.224646799147353207E-16 ) ) ;
#6 = DIRECTION ( 'NONE',  ( 4.275831445896958607E-31, 1.000000000000000000, 1.224646799147353207E-16 ) ) ;
#7 = PERSON_AND_ORGANIZATION ( #93, #101 ) ;
#8 = ADVANCED_BREP_SHAPE_REPRESENTATION ( '321658', ( #97, #179, #165 ), #133 ) ;
#9 = CC_DESIGN_PERSON_AND_ORGANIZATION_ASSIGNMENT ( #221, #217, ( #83 ) ) ;
#10 = AXIS2_PLACEMENT_3D ( 'NONE', #169, #117, #6 ) ;
#11 = CALENDAR_DATE ( 2021, 2, 12 ) ;
#12 = DIRECTION ( 'NONE',  ( -3.491481338843133355E-15, 1.224646799147353207E-16, -1.000000000000000000 ) ) ;
#13 = APPROVAL_DATE_TIME ( #102, #15 ) ;
#14 = AXIS2_PLACEMENT_3D ( 'NONE', #35, #186, #92 ) ;
#15 = APPROVAL ( #214, 'UNSPECIFIED' ) ;
#16 = CLOSED_SHELL ( 'NONE', ( #90, #110, #178, #237 ) ) ;
#17 = EDGE_LOOP ( 'NONE', ( #55 ) ) ;
#18 =( NAMED_UNIT ( * ) SI_UNIT ( $, .STERADIAN. ) SOLID_ANGLE_UNIT ( ) );
#19 = DIRECTION ( 'NONE',  ( 4.275831445896958607E-31, 1.000000000000000000, 1.224646799147353207E-16 ) ) ;
#20 = CARTESIAN_POINT ( 'NONE',  ( 2.793185071074506684E-13, -9.797174393178826052E-15, 80.00000000000000000 ) ) ;
#21 = DIRECTION ( 'NONE',  ( 3.491481338843133355E-15, -1.224646799147353207E-16, 1.000000000000000000 ) ) ;
#22 = ORIENTED_EDGE ( 'NONE', *, *, #142, .T. ) ;
#23 = VERTEX_POINT ( 'NONE', #98 ) ;
#24 = AXIS2_PLACEMENT_3D ( 'NONE', #1, #183, #114 ) ;
#25 = APPROVAL_ROLE ( '' ) ;
#26 = PERSON_AND_ORGANIZATION ( #93, #101 ) ;
#27 = CARTESIAN_POINT ( 'NONE',  ( 4.286536375772646476E-14, -1.503514566616023588E-15, 12.27712812921104302 ) ) ;
#28 = DIRECTION ( 'NONE',  ( -3.491481338843133355E-15, 1.224646799147353207E-16, -1.000000000000000000 ) ) ;
#29 = DATE_AND_TIME ( #64, #193 ) ;
#30 = DATE_TIME_ROLE ( 'classification_date' ) ;
#31 = AXIS2_PLACEMENT_3D ( 'NONE', #20, #131, #94 ) ;
#32 = LOCAL_TIME ( 13, 56, 9.000000000000000000, #198 ) ;
#33 = ORIENTED_EDGE ( 'NONE', *, *, #160, .F. ) ;
#34 = ORIENTED_EDGE ( 'NONE', *, *, #238, .T. ) ;
#35 = CARTESIAN_POINT ( 'NONE',  ( 2.793185071074506684E-13, -9.797174393178826052E-15, 80.00000000000000000 ) ) ;
#36 = ORIENTED_EDGE ( 'NONE', *, *, #47, .F. ) ;
#37 = DIRECTION ( 'NONE',  ( -3.491481338843133355E-15, 1.224646799147353207E-16, -1.000000000000000000 ) ) ;
#38 = PRODUCT_DEFINITION ( 'UNKNOWN', '', #181, #73 ) ;
#39 = LOCAL_TIME ( 13, 56, 9.000000000000000000, #155 ) ;
#40 = CONICAL_SURFACE ( 'NONE', #138, 1.760000000000004006, 0.7853981633974491672 ) ;
#41 = ORIENTED_EDGE ( 'NONE', *, *, #47, .T. ) ;
#42 = APPLICATION_PROTOCOL_DEFINITION ( 'international standard', 'config_control_design', 1994, #72 ) ;
#43 = FACE_BOUND ( 'NONE', #194, .T. ) ;
#44 = CARTESIAN_POINT ( 'NONE',  ( 4.286536375772646476E-14, 1.999999999999990452, 12.27712812921104302 ) ) ;
#45 = APPROVAL_ROLE ( '' ) ;
#46 = CALENDAR_DATE ( 2021, 2, 12 ) ;
#47 = EDGE_CURVE ( 'NONE', #213, #213, #128, .T. ) ;
#48 = APPROVAL_PERSON_ORGANIZATION ( #51, #105, #240 ) ;
#49 = DATE_TIME_ROLE ( 'creation_date' ) ;
#50 = APPLICATION_CONTEXT ( 'configuration controlled 3d designs of mechanical parts and assemblies' ) ;
#51 = PERSON_AND_ORGANIZATION ( #93, #101 ) ;
#52 = CC_DESIGN_APPROVAL ( #105, ( #38 ) ) ;
#53 = ORIENTED_EDGE ( 'NONE', *, *, #142, .F. ) ;
#54 = EDGE_LOOP ( 'NONE', ( #141 ) ) ;
#55 = ORIENTED_EDGE ( 'NONE', *, *, #161, .T. ) ;
#56 = EDGE_CURVE ( 'NONE', #132, #132, #80, .T. ) ;
#57 = DIRECTION ( 'NONE',  ( 4.275831445896958607E-31, 1.000000000000000000, 1.224646799147353454E-16 ) ) ;
#58 = AXIS2_PLACEMENT_3D ( 'NONE', #96, #37, #192 ) ;
#59 = DIRECTION ( 'NONE',  ( 1.000000000000000000, 0.0000000000000000000, 0.0000000000000000000 ) ) ;
#60 = CARTESIAN_POINT ( 'NONE',  ( 4.189777606611760026E-14, 1.619740565274808187E-32, 12.00000000000000000 ) ) ;
#61 = CC_DESIGN_DATE_AND_TIME_ASSIGNMENT ( #29, #49, ( #38 ) ) ;
#62 = CARTESIAN_POINT ( 'NONE',  ( 8.552847072295026068E-47, 1.760000000000004006, 0.0000000000000000000 ) ) ;
#63 = CC_DESIGN_APPROVAL ( #88, ( #242 ) ) ;
#64 = CALENDAR_DATE ( 2021, 2, 12 ) ;
#65 = PERSON_AND_ORGANIZATION_ROLE ( 'design_supplier' ) ;
#66 = PRODUCT_RELATED_PRODUCT_CATEGORY ( 'detail', '', ( #83 ) ) ;
#67 = ORIENTED_EDGE ( 'NONE', *, *, #209, .T. ) ;
#68 = EDGE_LOOP ( 'NONE', ( #41 ) ) ;
#69 = EDGE_LOOP ( 'NONE', ( #225 ) ) ;
#70 = CC_DESIGN_PERSON_AND_ORGANIZATION_ASSIGNMENT ( #7, #65, ( #181 ) ) ;
#71 = DIRECTION ( 'NONE',  ( 0.0000000000000000000, 1.000000000000000000, 0.0000000000000000000 ) ) ;
#72 = APPLICATION_CONTEXT ( 'configuration controlled 3d designs of mechanical parts and assemblies' ) ;
#73 = DESIGN_CONTEXT ( 'detailed design', #50, 'design' ) ;
#74 = FACE_OUTER_BOUND ( 'NONE', #17, .T. ) ;
#75 = AXIS2_PLACEMENT_3D ( 'NONE', #86, #222, #158 ) ;
#76 = FACE_OUTER_BOUND ( 'NONE', #91, .T. ) ;
#77 = CARTESIAN_POINT ( 'NONE',  ( 4.189777606611760026E-14, -1.469576158976823947E-15, 12.00000000000000000 ) ) ;
#78 = DIRECTION ( 'NONE',  ( 0.0000000000000000000, 1.000000000000000000, 0.0000000000000000000 ) ) ;
#79 = COORDINATED_UNIVERSAL_TIME_OFFSET ( 1, 0, .AHEAD. ) ;
#80 = CIRCLE ( 'NONE', #140, 1.999999999999991784 ) ;
#81 = PLANE ( 'NONE',  #58 ) ;
#82 = APPROVAL_PERSON_ORGANIZATION ( #197, #15, #25 ) ;
#83 = PRODUCT ( '321658', '321658', '', ( #129 ) ) ;
#84 = PERSON_AND_ORGANIZATION_ROLE ( 'classification_officer' ) ;
#85 = CIRCLE ( 'NONE', #187, 2.000000000000000888 ) ;
#86 = CARTESIAN_POINT ( 'NONE',  ( 4.189777606611760026E-14, -1.469576158976823947E-15, 12.00000000000000000 ) ) ;
#87 = SECURITY_CLASSIFICATION_LEVEL ( 'unclassified' ) ;
#88 = APPROVAL ( #172, 'UNSPECIFIED' ) ;
#89 = ADVANCED_FACE ( 'NONE', ( #203, #231 ), #139, .T. ) ;
#90 = ADVANCED_FACE ( 'NONE', ( #227, #127 ), #163, .T. ) ;
#91 = EDGE_LOOP ( 'NONE', ( #243 ) ) ;
#92 = DIRECTION ( 'NONE',  ( 0.0000000000000000000, 1.000000000000000000, 0.0000000000000000000 ) ) ;
#93 = PERSON ( 'UNSPECIFIED', 'UNSPECIFIED', 'UNSPECIFIED', ('UNSPECIFIED'), ('UNSPECIFIED'), ('UNSPECIFIED') ) ;
#94 = DIRECTION ( 'NONE',  ( 0.0000000000000000000, 1.000000000000000000, 0.0000000000000000000 ) ) ;
#95 = DIRECTION ( 'NONE',  ( 0.0000000000000000000, 1.000000000000000000, 0.0000000000000000000 ) ) ;
#96 = CARTESIAN_POINT ( 'NONE',  ( -3.762731672389331596E-31, 1.319788608742437760E-32, -1.077689183249673243E-16 ) ) ;
#97 = MANIFOLD_SOLID_BREP ( 'Corps-Déplacer/Copier1[1]', #164 ) ;
#98 = CARTESIAN_POINT ( 'NONE',  ( 2.793185071074506684E-13, 1.599999999999991207, 80.00000000000000000 ) ) ;
#99 = DIRECTION ( 'NONE',  ( 4.458171167563036257E-31, 1.000000000000000000, 1.254863625561923698E-16 ) ) ;
#100 = CIRCLE ( 'NONE', #159, 2.160000000000004583 ) ;
#101 = ORGANIZATION ( 'UNSPECIFIED', 'UNSPECIFIED', '' ) ;
#102 = DATE_AND_TIME ( #154, #126 ) ;
#103 = FACE_OUTER_BOUND ( 'NONE', #68, .T. ) ;
#104 = DATE_AND_TIME ( #153, #39 ) ;
#105 = APPROVAL ( #135, 'UNSPECIFIED' ) ;
#106 = CC_DESIGN_SECURITY_CLASSIFICATION ( #242, ( #181 ) ) ;
#107 = CIRCLE ( 'NONE', #75, 2.160000000000005027 ) ;
#108 = EDGE_LOOP ( 'NONE', ( #53 ) ) ;
#109 = AXIS2_PLACEMENT_3D ( 'NONE', #191, #143, #208 ) ;
#110 = ADVANCED_FACE ( 'NONE', ( #112 ), #184, .T. ) ;
#111 = EDGE_LOOP ( 'NONE', ( #36 ) ) ;
#112 = FACE_OUTER_BOUND ( 'NONE', #108, .T. ) ;
#113 = CARTESIAN_POINT ( 'NONE',  ( 4.189777606611760026E-14, 2.160000000000004139, 12.00000000000000000 ) ) ;
#114 = DIRECTION ( 'NONE',  ( -4.275831445896958607E-31, -1.000000000000000000, -1.224646799147353207E-16 ) ) ;
#115 = CARTESIAN_POINT ( 'NONE',  ( -7.525463344778663192E-31, 2.639577217484875520E-32, -2.155378366499346486E-16 ) ) ;
#116 = FACE_OUTER_BOUND ( 'NONE', #162, .T. ) ;
#117 = DIRECTION ( 'NONE',  ( -3.491481338843133355E-15, 1.224646799147353207E-16, -1.000000000000000000 ) ) ;
#118 = DIRECTION ( 'NONE',  ( -4.275831445896957731E-31, -1.000000000000000000, -1.224646799147353207E-16 ) ) ;
#119 = CARTESIAN_POINT ( 'NONE',  ( 2.779219145719134403E-13, 1.999999999999991340, 79.60000000000000853 ) ) ;
#120 = APPROVAL_DATE_TIME ( #104, #88 ) ;
#121 = ADVANCED_FACE ( 'NONE', ( #116, #228 ), #234, .T. ) ;
#122 = APPLICATION_PROTOCOL_DEFINITION ( 'international standard', 'config_control_design', 1994, #50 ) ;
#123 = PERSON_AND_ORGANIZATION_ROLE ( 'creator' ) ;
#124 = PRODUCT_DEFINITION_SHAPE ( 'NONE', 'NONE',  #38 ) ;
#125 = ORIENTED_EDGE ( 'NONE', *, *, #56, .T. ) ;
#126 = LOCAL_TIME ( 13, 56, 9.000000000000000000, #216 ) ;
#127 = FACE_OUTER_BOUND ( 'NONE', #54, .T. ) ;
#128 = CIRCLE ( 'NONE', #185, 1.760000000000004006 ) ;
#129 = MECHANICAL_CONTEXT ( 'NONE', #72, 'mechanical' ) ;
#130 = ORIENTED_EDGE ( 'NONE', *, *, #238, .F. ) ;
#131 = DIRECTION ( 'NONE',  ( -3.491481338843133355E-15, 1.224646799147353207E-16, -1.000000000000000000 ) ) ;
#132 = VERTEX_POINT ( 'NONE', #44 ) ;
#133 =( GEOMETRIC_REPRESENTATION_CONTEXT ( 3 ) GLOBAL_UNCERTAINTY_ASSIGNED_CONTEXT ( ( #182 ) ) GLOBAL_UNIT_ASSIGNED_CONTEXT ( ( #229, #232, #18 ) ) REPRESENTATION_CONTEXT ( 'NONE', 'WORKASPACE' ) );
#134 = PERSON_AND_ORGANIZATION ( #93, #101 ) ;
#135 = APPROVAL_STATUS ( 'not_yet_approved' ) ;
#136 = COORDINATED_UNIVERSAL_TIME_OFFSET ( 1, 0, .AHEAD. ) ;
#137 = AXIS2_PLACEMENT_3D ( 'NONE', #223, #28, #180 ) ;
#138 = AXIS2_PLACEMENT_3D ( 'NONE', #167, #21, #118 ) ;
#139 = CONICAL_SURFACE ( 'NONE', #14, 1.600000000000000977, 0.7853981633974512766 ) ;
#140 = AXIS2_PLACEMENT_3D ( 'NONE', #27, #12, #71 ) ;
#141 = ORIENTED_EDGE ( 'NONE', *, *, #161, .F. ) ;
#142 = EDGE_CURVE ( 'NONE', #211, #211, #107, .T. ) ;
#143 = DIRECTION ( 'NONE',  ( -3.491481338843133355E-15, 1.224646799147353207E-16, -1.000000000000000000 ) ) ;
#144 = CARTESIAN_POINT ( 'NONE',  ( 0.0000000000000000000, 0.0000000000000000000, 0.0000000000000000000 ) ) ;
#145 = VERTEX_POINT ( 'NONE', #119 ) ;
#146 = AXIS2_PLACEMENT_3D ( 'NONE', #144, #230, #57 ) ;
#147 = DIRECTION ( 'NONE',  ( 0.0000000000000000000, 0.0000000000000000000, 1.000000000000000000 ) ) ;
#148 = EDGE_LOOP ( 'NONE', ( #22 ) ) ;
#149 = AXIS2_PLACEMENT_3D ( 'NONE', #60, #166, #5 ) ;
#150 = FACE_BOUND ( 'NONE', #111, .T. ) ;
#151 = FACE_OUTER_BOUND ( 'NONE', #206, .T. ) ;
#152 = CARTESIAN_POINT ( 'NONE',  ( 1.396592535537253145E-15, -4.898587196589411843E-17, 0.3999999999999999112 ) ) ;
#153 = CALENDAR_DATE ( 2021, 2, 12 ) ;
#154 = CALENDAR_DATE ( 2021, 2, 12 ) ;
#155 = COORDINATED_UNIVERSAL_TIME_OFFSET ( 1, 0, .AHEAD. ) ;
#156 = APPROVAL_PERSON_ORGANIZATION ( #173, #88, #45 ) ;
#157 = DATE_AND_TIME ( #46, #218 ) ;
#158 = DIRECTION ( 'NONE',  ( 0.0000000000000000000, 1.000000000000000000, 0.0000000000000000000 ) ) ;
#159 = AXIS2_PLACEMENT_3D ( 'NONE', #152, #196, #99 ) ;
#160 = EDGE_CURVE ( 'NONE', #145, #145, #85, .T. ) ;
#161 = EDGE_CURVE ( 'NONE', #2, #2, #100, .T. ) ;
#162 = EDGE_LOOP ( 'NONE', ( #226 ) ) ;
#163 = CYLINDRICAL_SURFACE ( 'NONE', #146, 2.160000000000004583 ) ;
#164 = CLOSED_SHELL ( 'NONE', ( #190, #215, #121, #89, #239 ) ) ;
#165 = AXIS2_PLACEMENT_3D ( 'NONE', #3, #147, #59 ) ;
#166 = DIRECTION ( 'NONE',  ( 3.491481338843133355E-15, -1.224646799147353207E-16, 1.000000000000000000 ) ) ;
#167 = CARTESIAN_POINT ( 'NONE',  ( -7.525463344778663192E-31, 2.639577217484875520E-32, -2.155378366499346486E-16 ) ) ;
#168 = DIRECTION ( 'NONE',  ( -3.491481338843133355E-15, 1.224646799147353207E-16, -1.000000000000000000 ) ) ;
#169 = CARTESIAN_POINT ( 'NONE',  ( 2.793185071074506684E-13, 1.199807826129472128E-32, 80.00000000000000000 ) ) ;
#170 = CC_DESIGN_DATE_AND_TIME_ASSIGNMENT ( #157, #30, ( #242 ) ) ;
#171 = DIRECTION ( 'NONE',  ( -3.491481338843133355E-15, 1.224646799147353207E-16, -1.000000000000000000 ) ) ;
#172 = APPROVAL_STATUS ( 'not_yet_approved' ) ;
#173 = PERSON_AND_ORGANIZATION ( #93, #101 ) ;
#174 = AXIS2_PLACEMENT_3D ( 'NONE', #77, #168, #95 ) ;
#175 = PERSON_AND_ORGANIZATION ( #93, #101 ) ;
#176 = DATE_AND_TIME ( #11, #32 ) ;
#177 = DIRECTION ( 'NONE',  ( -3.491481338843133355E-15, 1.224646799147353207E-16, -1.000000000000000000 ) ) ;
#178 = ADVANCED_FACE ( 'NONE', ( #103 ), #81, .T. ) ;
#179 = MANIFOLD_SOLID_BREP ( 'Corps-Déplacer/Copier1[2]', #16 ) ;
#180 = DIRECTION ( 'NONE',  ( 4.275831445896958607E-31, 1.000000000000000000, 1.224646799147353207E-16 ) ) ;
#181 = PRODUCT_DEFINITION_FORMATION_WITH_SPECIFIED_SOURCE ( 'ANY', '', #83, .NOT_KNOWN. ) ;
#182 = UNCERTAINTY_MEASURE_WITH_UNIT (LENGTH_MEASURE( 1.000000000000000082E-05 ), #229, 'distance_accuracy_value', 'NONE');
#183 = DIRECTION ( 'NONE',  ( 3.491481338843133355E-15, -1.224646799147353207E-16, 1.000000000000000000 ) ) ;
#184 = PLANE ( 'NONE',  #24 ) ;
#185 = AXIS2_PLACEMENT_3D ( 'NONE', #115, #171, #19 ) ;
#186 = DIRECTION ( 'NONE',  ( -3.491481338843133355E-15, 1.224646799147353207E-16, -1.000000000000000000 ) ) ;
#187 = AXIS2_PLACEMENT_3D ( 'NONE', #201, #177, #78 ) ;
#188 = CARTESIAN_POINT ( 'NONE',  ( 4.189777606611760026E-14, 2.160000000000004139, 12.00000000000000000 ) ) ;
#189 = VERTEX_POINT ( 'NONE', #188 ) ;
#190 = ADVANCED_FACE ( 'NONE', ( #151 ), #233, .F. ) ;
#191 = CARTESIAN_POINT ( 'NONE',  ( 4.189777606611760026E-14, -1.469576158976823947E-15, 12.00000000000000000 ) ) ;
#192 = DIRECTION ( 'NONE',  ( 4.275831445896958607E-31, 1.000000000000000000, 1.224646799147353207E-16 ) ) ;
#193 = LOCAL_TIME ( 13, 56, 9.000000000000000000, #136 ) ;
#194 = EDGE_LOOP ( 'NONE', ( #125 ) ) ;
#195 = CARTESIAN_POINT ( 'NONE',  ( 1.396592535537254131E-15, 2.160000000000004583, 0.4000000000000001887 ) ) ;
#196 = DIRECTION ( 'NONE',  ( -3.491481338843133355E-15, 1.224646799147353207E-16, -1.000000000000000000 ) ) ;
#197 = PERSON_AND_ORGANIZATION ( #93, #101 ) ;
#198 = COORDINATED_UNIVERSAL_TIME_OFFSET ( 1, 0, .AHEAD. ) ;
#199 = PERSON_AND_ORGANIZATION_ROLE ( 'creator' ) ;
#200 = EDGE_LOOP ( 'NONE', ( #33 ) ) ;
#201 = CARTESIAN_POINT ( 'NONE',  ( 2.779219145719134403E-13, -9.748188521212932624E-15, 79.60000000000000853 ) ) ;
#202 = CC_DESIGN_PERSON_AND_ORGANIZATION_ASSIGNMENT ( #175, #199, ( #181 ) ) ;
#203 = FACE_OUTER_BOUND ( 'NONE', #200, .T. ) ;
#204 = CIRCLE ( 'NONE', #31, 1.600000000000000977 ) ;
#205 = CONICAL_SURFACE ( 'NONE', #174, 2.160000000000005027, 0.5235987755983003700 ) ;
#206 = EDGE_LOOP ( 'NONE', ( #67 ) ) ;
#207 = CC_DESIGN_APPROVAL ( #15, ( #181 ) ) ;
#208 = DIRECTION ( 'NONE',  ( 0.0000000000000000000, 1.000000000000000000, 0.0000000000000000000 ) ) ;
#209 = EDGE_CURVE ( 'NONE', #189, #189, #224, .T. ) ;
#210 = EDGE_LOOP ( 'NONE', ( #130 ) ) ;
#211 = VERTEX_POINT ( 'NONE', #113 ) ;
#212 = PLANE ( 'NONE',  #10 ) ;
#213 = VERTEX_POINT ( 'NONE', #62 ) ;
#214 = APPROVAL_STATUS ( 'not_yet_approved' ) ;
#215 = ADVANCED_FACE ( 'NONE', ( #43, #76 ), #205, .T. ) ;
#216 = COORDINATED_UNIVERSAL_TIME_OFFSET ( 1, 0, .AHEAD. ) ;
#217 = PERSON_AND_ORGANIZATION_ROLE ( 'design_owner' ) ;
#218 = LOCAL_TIME ( 13, 56, 9.000000000000000000, #79 ) ;
#219 = APPROVAL_DATE_TIME ( #176, #105 ) ;
#220 = CC_DESIGN_PERSON_AND_ORGANIZATION_ASSIGNMENT ( #134, #84, ( #242 ) ) ;
#221 = PERSON_AND_ORGANIZATION ( #93, #101 ) ;
#222 = DIRECTION ( 'NONE',  ( -3.491481338843133355E-15, 1.224646799147353207E-16, -1.000000000000000000 ) ) ;
#223 = CARTESIAN_POINT ( 'NONE',  ( 0.0000000000000000000, 0.0000000000000000000, 0.0000000000000000000 ) ) ;
#224 = CIRCLE ( 'NONE', #109, 2.160000000000005027 ) ;
#225 = ORIENTED_EDGE ( 'NONE', *, *, #160, .T. ) ;
#226 = ORIENTED_EDGE ( 'NONE', *, *, #56, .F. ) ;
#227 = FACE_OUTER_BOUND ( 'NONE', #148, .T. ) ;
#228 = FACE_OUTER_BOUND ( 'NONE', #69, .T. ) ;
#229 =( LENGTH_UNIT ( ) NAMED_UNIT ( * ) SI_UNIT ( .MILLI., .METRE. ) );
#230 = DIRECTION ( 'NONE',  ( -3.491481338843133355E-15, 1.224646799147353207E-16, -1.000000000000000000 ) ) ;
#231 = FACE_BOUND ( 'NONE', #241, .T. ) ;
#232 =( NAMED_UNIT ( * ) PLANE_ANGLE_UNIT ( ) SI_UNIT ( $, .RADIAN. ) );
#233 = PLANE ( 'NONE',  #149 ) ;
#234 = CYLINDRICAL_SURFACE ( 'NONE', #137, 1.999999999999996669 ) ;
#235 = FACE_OUTER_BOUND ( 'NONE', #210, .T. ) ;
#236 = SHAPE_DEFINITION_REPRESENTATION ( #124, #8 ) ;
#237 = ADVANCED_FACE ( 'NONE', ( #74, #150 ), #40, .T. ) ;
#238 = EDGE_CURVE ( 'NONE', #23, #23, #204, .T. ) ;
#239 = ADVANCED_FACE ( 'NONE', ( #235 ), #212, .F. ) ;
#240 = APPROVAL_ROLE ( '' ) ;
#241 = EDGE_LOOP ( 'NONE', ( #34 ) ) ;
#242 = SECURITY_CLASSIFICATION ( '', '', #87 ) ;
#243 = ORIENTED_EDGE ( 'NONE', *, *, #209, .F. ) ;
ENDSEC;
END-ISO-10303-21;
