ISO-10303-21;
HEADER;
FILE_DESCRIPTION (( 'STEP AP203' ),
    '1' );
FILE_NAME ('321657.step',
    '2021-12-02T12:56:08',
    ( '' ),
    ( '' ),
    'SwSTEP 2.0',
    'SolidWorks 2019',
    '' );
FILE_SCHEMA (( 'CONFIG_CONTROL_DESIGN' ));
ENDSEC;

DATA;
#1 = CIRCLE ( 'NONE', #152, 2.000000000000000888 ) ;
#2 = CARTESIAN_POINT ( 'NONE',  ( 4.189777606611760026E-14, 2.155000000000003801, 12.00000000000000000 ) ) ;
#3 = DIRECTION ( 'NONE',  ( 0.0000000000000000000, 1.000000000000000000, 0.0000000000000000000 ) ) ;
#4 = PRODUCT_DEFINITION ( 'UNKNOWN', '', #146, #159 ) ;
#5 = EDGE_LOOP ( 'NONE', ( #236 ) ) ;
#6 = CALENDAR_DATE ( 2021, 2, 12 ) ;
#7 = CARTESIAN_POINT ( 'NONE',  ( 2.793185071074506684E-13, -9.797174393178826052E-15, 80.00000000000000000 ) ) ;
#8 = ADVANCED_FACE ( 'NONE', ( #66 ), #191, .T. ) ;
#9 = CLOSED_SHELL ( 'NONE', ( #209, #8, #14, #237 ) ) ;
#10 = PLANE ( 'NONE',  #138 ) ;
#11 = DIRECTION ( 'NONE',  ( 0.0000000000000000000, 1.000000000000000000, 0.0000000000000000000 ) ) ;
#12 = CC_DESIGN_APPROVAL ( #188, ( #146 ) ) ;
#13 = AXIS2_PLACEMENT_3D ( 'NONE', #88, #242, #73 ) ;
#14 = ADVANCED_FACE ( 'NONE', ( #150 ), #16, .T. ) ;
#15 = FACE_OUTER_BOUND ( 'NONE', #70, .T. ) ;
#16 = PLANE ( 'NONE',  #56 ) ;
#17 = PRODUCT ( '321657', '321657', '', ( #179 ) ) ;
#18 = AXIS2_PLACEMENT_3D ( 'NONE', #184, #31, #84 ) ;
#19 = DIRECTION ( 'NONE',  ( -3.491481338843133355E-15, 1.224646799147353207E-16, -1.000000000000000000 ) ) ;
#20 = EDGE_CURVE ( 'NONE', #109, #109, #51, .T. ) ;
#21 = MANIFOLD_SOLID_BREP ( 'Corps-Déplacer/Copier1[2]', #9 ) ;
#22 = AXIS2_PLACEMENT_3D ( 'NONE', #46, #157, #178 ) ;
#23 = APPLICATION_PROTOCOL_DEFINITION ( 'international standard', 'config_control_design', 1994, #199 ) ;
#24 = FACE_OUTER_BOUND ( 'NONE', #107, .T. ) ;
#25 = PERSON_AND_ORGANIZATION_ROLE ( 'design_owner' ) ;
#26 = DIRECTION ( 'NONE',  ( -3.491481338843133355E-15, 1.224646799147353207E-16, -1.000000000000000000 ) ) ;
#27 = CC_DESIGN_APPROVAL ( #164, ( #4 ) ) ;
#28 = COORDINATED_UNIVERSAL_TIME_OFFSET ( 1, 0, .AHEAD. ) ;
#29 = CC_DESIGN_DATE_AND_TIME_ASSIGNMENT ( #224, #232, ( #4 ) ) ;
#30 = CC_DESIGN_PERSON_AND_ORGANIZATION_ASSIGNMENT ( #117, #113, ( #146 ) ) ;
#31 = DIRECTION ( 'NONE',  ( -3.491481338843133355E-15, 1.224646799147353207E-16, -1.000000000000000000 ) ) ;
#32 = FACE_OUTER_BOUND ( 'NONE', #172, .T. ) ;
#33 = PERSON_AND_ORGANIZATION ( #168, #115 ) ;
#34 = SHAPE_DEFINITION_REPRESENTATION ( #83, #75 ) ;
#35 = ORIENTED_EDGE ( 'NONE', *, *, #105, .F. ) ;
#36 = DIRECTION ( 'NONE',  ( 0.0000000000000000000, 0.0000000000000000000, 1.000000000000000000 ) ) ;
#37 = CARTESIAN_POINT ( 'NONE',  ( 4.189777606611760026E-14, -1.469576158976823947E-15, 12.00000000000000000 ) ) ;
#38 = FACE_OUTER_BOUND ( 'NONE', #149, .T. ) ;
#39 = PERSON_AND_ORGANIZATION ( #168, #115 ) ;
#40 = FACE_BOUND ( 'NONE', #71, .T. ) ;
#41 = SECURITY_CLASSIFICATION ( '', '', #169 ) ;
#42 = ADVANCED_FACE ( 'NONE', ( #62, #153 ), #226, .T. ) ;
#43 = PERSON_AND_ORGANIZATION ( #168, #115 ) ;
#44 = CARTESIAN_POINT ( 'NONE',  ( 4.283512664236368340E-14, -1.502453991377298740E-15, 12.26846787517319726 ) ) ;
#45 = DIRECTION ( 'NONE',  ( -3.491481338843133355E-15, 1.224646799147353207E-16, -1.000000000000000000 ) ) ;
#46 = CARTESIAN_POINT ( 'NONE',  ( 4.189777606611760026E-14, -1.469576158976823947E-15, 12.00000000000000000 ) ) ;
#47 = APPROVAL_PERSON_ORGANIZATION ( #43, #164, #201 ) ;
#48 = AXIS2_PLACEMENT_3D ( 'NONE', #58, #132, #225 ) ;
#49 = EDGE_CURVE ( 'NONE', #154, #154, #106, .T. ) ;
#50 = ORIENTED_EDGE ( 'NONE', *, *, #20, .F. ) ;
#51 = CIRCLE ( 'NONE', #22, 2.155000000000005134 ) ;
#52 =( NAMED_UNIT ( * ) PLANE_ANGLE_UNIT ( ) SI_UNIT ( $, .RADIAN. ) );
#53 = EDGE_LOOP ( 'NONE', ( #54 ) ) ;
#54 = ORIENTED_EDGE ( 'NONE', *, *, #87, .F. ) ;
#55 = PERSON_AND_ORGANIZATION_ROLE ( 'creator' ) ;
#56 = AXIS2_PLACEMENT_3D ( 'NONE', #91, #19, #96 ) ;
#57 =( LENGTH_UNIT ( ) NAMED_UNIT ( * ) SI_UNIT ( .MILLI., .METRE. ) );
#58 = CARTESIAN_POINT ( 'NONE',  ( 0.0000000000000000000, 0.0000000000000000000, 0.0000000000000000000 ) ) ;
#59 = DIRECTION ( 'NONE',  ( 4.468514952174550594E-31, 1.000000000000000000, 1.257775142094549738E-16 ) ) ;
#60 = VERTEX_POINT ( 'NONE', #137 ) ;
#61 = VERTEX_POINT ( 'NONE', #94 ) ;
#62 = FACE_OUTER_BOUND ( 'NONE', #239, .T. ) ;
#63 = LOCAL_TIME ( 13, 56, 8.000000000000000000, #208 ) ;
#64 = EDGE_CURVE ( 'NONE', #60, #60, #230, .T. ) ;
#65 = LOCAL_TIME ( 13, 56, 8.000000000000000000, #189 ) ;
#66 = FACE_OUTER_BOUND ( 'NONE', #128, .T. ) ;
#67 = ADVANCED_FACE ( 'NONE', ( #40, #24 ), #197, .T. ) ;
#68 = EDGE_LOOP ( 'NONE', ( #35 ) ) ;
#69 = ORIENTED_EDGE ( 'NONE', *, *, #74, .F. ) ;
#70 = EDGE_LOOP ( 'NONE', ( #219 ) ) ;
#71 = EDGE_LOOP ( 'NONE', ( #116 ) ) ;
#72 = APPROVAL_DATE_TIME ( #182, #164 ) ;
#73 = DIRECTION ( 'NONE',  ( -4.275831445896958607E-31, -1.000000000000000000, -1.224646799147353207E-16 ) ) ;
#74 = EDGE_CURVE ( 'NONE', #114, #114, #190, .T. ) ;
#75 = ADVANCED_BREP_SHAPE_REPRESENTATION ( '321657', ( #101, #21, #130 ), #235 ) ;
#76 = AXIS2_PLACEMENT_3D ( 'NONE', #7, #45, #122 ) ;
#77 = DIRECTION ( 'NONE',  ( -3.491481338843133355E-15, 1.224646799147353207E-16, -1.000000000000000000 ) ) ;
#78 = CARTESIAN_POINT ( 'NONE',  ( 4.189777606611760026E-14, 2.155000000000003801, 12.00000000000000000 ) ) ;
#79 = PRODUCT_RELATED_PRODUCT_CATEGORY ( 'detail', '', ( #17 ) ) ;
#80 = DATE_AND_TIME ( #102, #165 ) ;
#81 = AXIS2_PLACEMENT_3D ( 'NONE', #89, #95, #228 ) ;
#82 = CC_DESIGN_DATE_AND_TIME_ASSIGNMENT ( #80, #163, ( #41 ) ) ;
#83 = PRODUCT_DEFINITION_SHAPE ( 'NONE', 'NONE',  #4 ) ;
#84 = DIRECTION ( 'NONE',  ( 4.275831445896958607E-31, 1.000000000000000000, 1.224646799147353454E-16 ) ) ;
#85 = APPROVAL_ROLE ( '' ) ;
#86 = CC_DESIGN_PERSON_AND_ORGANIZATION_ASSIGNMENT ( #160, #25, ( #17 ) ) ;
#87 = EDGE_CURVE ( 'NONE', #196, #196, #204, .T. ) ;
#88 = CARTESIAN_POINT ( 'NONE',  ( 4.189777606611760026E-14, 1.615991165818153516E-32, 12.00000000000000000 ) ) ;
#89 = CARTESIAN_POINT ( 'NONE',  ( 2.793185071074506684E-13, 1.199807826129472128E-32, 80.00000000000000000 ) ) ;
#90 =( NAMED_UNIT ( * ) SI_UNIT ( $, .STERADIAN. ) SOLID_ANGLE_UNIT ( ) );
#91 = CARTESIAN_POINT ( 'NONE',  ( -3.752042093774589239E-31, 1.316039209285783089E-32, -1.074627566251804805E-16 ) ) ;
#92 = FACE_BOUND ( 'NONE', #53, .T. ) ;
#93 = CLOSED_SHELL ( 'NONE', ( #234, #67, #42, #214, #181 ) ) ;
#94 = CARTESIAN_POINT ( 'NONE',  ( 2.779219145719134403E-13, 1.999999999999991340, 79.60000000000000853 ) ) ;
#95 = DIRECTION ( 'NONE',  ( -3.491481338843133355E-15, 1.224646799147353207E-16, -1.000000000000000000 ) ) ;
#96 = DIRECTION ( 'NONE',  ( 4.275831445896958607E-31, 1.000000000000000000, 1.224646799147353207E-16 ) ) ;
#97 = CALENDAR_DATE ( 2021, 2, 12 ) ;
#98 = UNCERTAINTY_MEASURE_WITH_UNIT (LENGTH_MEASURE( 1.000000000000000082E-05 ), #57, 'distance_accuracy_value', 'NONE');
#99 = CALENDAR_DATE ( 2021, 2, 12 ) ;
#100 = DIRECTION ( 'NONE',  ( 1.000000000000000000, 0.0000000000000000000, 0.0000000000000000000 ) ) ;
#101 = MANIFOLD_SOLID_BREP ( 'Corps-Déplacer/Copier1[1]', #93 ) ;
#102 = CALENDAR_DATE ( 2021, 2, 12 ) ;
#103 = PERSON_AND_ORGANIZATION ( #168, #115 ) ;
#104 = CARTESIAN_POINT ( 'NONE',  ( 2.793185071074506684E-13, -9.797174393178826052E-15, 80.00000000000000000 ) ) ;
#105 = EDGE_CURVE ( 'NONE', #61, #61, #1, .T. ) ;
#106 = CIRCLE ( 'NONE', #222, 2.155000000000005134 ) ;
#107 = EDGE_LOOP ( 'NONE', ( #50 ) ) ;
#108 = AXIS2_PLACEMENT_3D ( 'NONE', #186, #213, #120 ) ;
#109 = VERTEX_POINT ( 'NONE', #2 ) ;
#110 = APPROVAL_ROLE ( '' ) ;
#111 = CALENDAR_DATE ( 2021, 2, 12 ) ;
#112 = CC_DESIGN_PERSON_AND_ORGANIZATION_ASSIGNMENT ( #39, #55, ( #4 ) ) ;
#113 = PERSON_AND_ORGANIZATION_ROLE ( 'creator' ) ;
#114 = VERTEX_POINT ( 'NONE', #78 ) ;
#115 = ORGANIZATION ( 'UNSPECIFIED', 'UNSPECIFIED', '' ) ;
#116 = ORIENTED_EDGE ( 'NONE', *, *, #64, .T. ) ;
#117 = PERSON_AND_ORGANIZATION ( #168, #115 ) ;
#118 = APPROVAL_STATUS ( 'not_yet_approved' ) ;
#119 = APPROVAL_STATUS ( 'not_yet_approved' ) ;
#120 = DIRECTION ( 'NONE',  ( 4.275831445896958607E-31, 1.000000000000000000, 1.224646799147352961E-16 ) ) ;
#121 = APPROVAL_DATE_TIME ( #194, #188 ) ;
#122 = DIRECTION ( 'NONE',  ( 0.0000000000000000000, 1.000000000000000000, 0.0000000000000000000 ) ) ;
#123 = CONICAL_SURFACE ( 'NONE', #76, 1.600000000000000977, 0.7853981633974512766 ) ;
#124 = AXIS2_PLACEMENT_3D ( 'NONE', #171, #205, #144 ) ;
#125 = DIRECTION ( 'NONE',  ( 0.0000000000000000000, 1.000000000000000000, 0.0000000000000000000 ) ) ;
#126 = LOCAL_TIME ( 13, 56, 8.000000000000000000, #131 ) ;
#127 = ORIENTED_EDGE ( 'NONE', *, *, #105, .T. ) ;
#128 = EDGE_LOOP ( 'NONE', ( #69 ) ) ;
#129 = ORIENTED_EDGE ( 'NONE', *, *, #64, .F. ) ;
#130 = AXIS2_PLACEMENT_3D ( 'NONE', #221, #36, #100 ) ;
#131 = COORDINATED_UNIVERSAL_TIME_OFFSET ( 1, 0, .AHEAD. ) ;
#132 = DIRECTION ( 'NONE',  ( -3.491481338843133355E-15, 1.224646799147353207E-16, -1.000000000000000000 ) ) ;
#133 = DIRECTION ( 'NONE',  ( -4.275831445896958607E-31, -1.000000000000000000, -1.224646799147353207E-16 ) ) ;
#134 = DATE_AND_TIME ( #97, #63 ) ;
#135 = ORIENTED_EDGE ( 'NONE', *, *, #174, .F. ) ;
#136 = DIRECTION ( 'NONE',  ( 0.0000000000000000000, 1.000000000000000000, 0.0000000000000000000 ) ) ;
#137 = CARTESIAN_POINT ( 'NONE',  ( 4.283512664236368340E-14, 1.999999999999990452, 12.26846787517319726 ) ) ;
#138 = AXIS2_PLACEMENT_3D ( 'NONE', #162, #243, #133 ) ;
#139 = DIRECTION ( 'NONE',  ( -3.491481338843133355E-15, 1.224646799147353207E-16, -1.000000000000000000 ) ) ;
#140 = CONICAL_SURFACE ( 'NONE', #215, 1.755000000000003668, 0.7853981633974498333 ) ;
#141 = ORIENTED_EDGE ( 'NONE', *, *, #74, .T. ) ;
#142 = APPROVAL ( #118, 'UNSPECIFIED' ) ;
#143 = DIRECTION ( 'NONE',  ( -3.491481338843133355E-15, 1.224646799147353207E-16, -1.000000000000000000 ) ) ;
#144 = DIRECTION ( 'NONE',  ( 0.0000000000000000000, 1.000000000000000000, 0.0000000000000000000 ) ) ;
#145 = APPROVAL_PERSON_ORGANIZATION ( #103, #142, #110 ) ;
#146 = PRODUCT_DEFINITION_FORMATION_WITH_SPECIFIED_SOURCE ( 'ANY', '', #17, .NOT_KNOWN. ) ;
#147 = EDGE_LOOP ( 'NONE', ( #148 ) ) ;
#148 = ORIENTED_EDGE ( 'NONE', *, *, #87, .T. ) ;
#149 = EDGE_LOOP ( 'NONE', ( #238 ) ) ;
#150 = FACE_OUTER_BOUND ( 'NONE', #147, .T. ) ;
#151 = CARTESIAN_POINT ( 'NONE',  ( -7.504084187549178478E-31, 2.632078418571566178E-32, -2.149255132503609611E-16 ) ) ;
#152 = AXIS2_PLACEMENT_3D ( 'NONE', #167, #143, #125 ) ;
#153 = FACE_OUTER_BOUND ( 'NONE', #241, .T. ) ;
#154 = VERTEX_POINT ( 'NONE', #155 ) ;
#155 = CARTESIAN_POINT ( 'NONE',  ( 1.396592535537253737E-15, 2.155000000000005134, 0.4000000000000000777 ) ) ;
#156 = FACE_OUTER_BOUND ( 'NONE', #68, .T. ) ;
#157 = DIRECTION ( 'NONE',  ( -3.491481338843133355E-15, 1.224646799147353207E-16, -1.000000000000000000 ) ) ;
#158 = AXIS2_PLACEMENT_3D ( 'NONE', #104, #77, #3 ) ;
#159 = DESIGN_CONTEXT ( 'detailed design', #192, 'design' ) ;
#160 = PERSON_AND_ORGANIZATION ( #168, #115 ) ;
#161 = CC_DESIGN_SECURITY_CLASSIFICATION ( #41, ( #146 ) ) ;
#162 = CARTESIAN_POINT ( 'NONE',  ( 4.189777606611760026E-14, 1.615991165818153516E-32, 12.00000000000000000 ) ) ;
#163 = DATE_TIME_ROLE ( 'classification_date' ) ;
#164 = APPROVAL ( #119, 'UNSPECIFIED' ) ;
#165 = LOCAL_TIME ( 13, 56, 8.000000000000000000, #202 ) ;
#166 = APPROVAL_PERSON_ORGANIZATION ( #33, #188, #85 ) ;
#167 = CARTESIAN_POINT ( 'NONE',  ( 2.779219145719134403E-13, -9.748188521212932624E-15, 79.60000000000000853 ) ) ;
#168 = PERSON ( 'UNSPECIFIED', 'UNSPECIFIED', 'UNSPECIFIED', ('UNSPECIFIED'), ('UNSPECIFIED'), ('UNSPECIFIED') ) ;
#169 = SECURITY_CLASSIFICATION_LEVEL ( 'unclassified' ) ;
#170 = CARTESIAN_POINT ( 'NONE',  ( 2.793185071074506684E-13, 1.599999999999991207, 80.00000000000000000 ) ) ;
#171 = CARTESIAN_POINT ( 'NONE',  ( 4.189777606611760026E-14, -1.469576158976823947E-15, 12.00000000000000000 ) ) ;
#172 = EDGE_LOOP ( 'NONE', ( #141 ) ) ;
#173 = EDGE_LOOP ( 'NONE', ( #220 ) ) ;
#174 = EDGE_CURVE ( 'NONE', #177, #177, #183, .T. ) ;
#175 = DIRECTION ( 'NONE',  ( -4.275831445896958607E-31, -1.000000000000000000, -1.224646799147353454E-16 ) ) ;
#176 = LOCAL_TIME ( 13, 56, 8.000000000000000000, #28 ) ;
#177 = VERTEX_POINT ( 'NONE', #170 ) ;
#178 = DIRECTION ( 'NONE',  ( 0.0000000000000000000, 1.000000000000000000, 0.0000000000000000000 ) ) ;
#179 = MECHANICAL_CONTEXT ( 'NONE', #199, 'mechanical' ) ;
#180 = FACE_OUTER_BOUND ( 'NONE', #5, .T. ) ;
#181 = ADVANCED_FACE ( 'NONE', ( #210 ), #198, .F. ) ;
#182 = DATE_AND_TIME ( #99, #176 ) ;
#183 = CIRCLE ( 'NONE', #158, 1.600000000000000977 ) ;
#184 = CARTESIAN_POINT ( 'NONE',  ( -7.504084187549178478E-31, 2.632078418571566178E-32, -2.149255132503609611E-16 ) ) ;
#185 = EDGE_LOOP ( 'NONE', ( #135 ) ) ;
#186 = CARTESIAN_POINT ( 'NONE',  ( 0.0000000000000000000, 0.0000000000000000000, 0.0000000000000000000 ) ) ;
#187 = PERSON_AND_ORGANIZATION_ROLE ( 'design_supplier' ) ;
#188 = APPROVAL ( #217, 'UNSPECIFIED' ) ;
#189 = COORDINATED_UNIVERSAL_TIME_OFFSET ( 1, 0, .AHEAD. ) ;
#190 = CIRCLE ( 'NONE', #124, 2.155000000000005134 ) ;
#191 = PLANE ( 'NONE',  #13 ) ;
#192 = APPLICATION_CONTEXT ( 'configuration controlled 3d designs of mechanical parts and assemblies' ) ;
#193 = DIRECTION ( 'NONE',  ( -3.491481338843133355E-15, 1.224646799147353207E-16, -1.000000000000000000 ) ) ;
#194 = DATE_AND_TIME ( #6, #65 ) ;
#195 = PERSON_AND_ORGANIZATION ( #168, #115 ) ;
#196 = VERTEX_POINT ( 'NONE', #227 ) ;
#197 = CONICAL_SURFACE ( 'NONE', #233, 2.155000000000005134, 0.5235987755983011471 ) ;
#198 = PLANE ( 'NONE',  #81 ) ;
#199 = APPLICATION_CONTEXT ( 'configuration controlled 3d designs of mechanical parts and assemblies' ) ;
#200 = AXIS2_PLACEMENT_3D ( 'NONE', #44, #26, #136 ) ;
#201 = APPROVAL_ROLE ( '' ) ;
#202 = COORDINATED_UNIVERSAL_TIME_OFFSET ( 1, 0, .AHEAD. ) ;
#203 = FACE_BOUND ( 'NONE', #173, .T. ) ;
#204 = CIRCLE ( 'NONE', #18, 1.755000000000003668 ) ;
#205 = DIRECTION ( 'NONE',  ( -3.491481338843133355E-15, 1.224646799147353207E-16, -1.000000000000000000 ) ) ;
#206 = CYLINDRICAL_SURFACE ( 'NONE', #108, 2.155000000000005134 ) ;
#207 = PERSON_AND_ORGANIZATION_ROLE ( 'classification_officer' ) ;
#208 = COORDINATED_UNIVERSAL_TIME_OFFSET ( 1, 0, .AHEAD. ) ;
#209 = ADVANCED_FACE ( 'NONE', ( #32, #15 ), #206, .T. ) ;
#210 = FACE_OUTER_BOUND ( 'NONE', #185, .T. ) ;
#211 = DIRECTION ( 'NONE',  ( 3.491481338843133355E-15, -1.224646799147353207E-16, 1.000000000000000000 ) ) ;
#212 = APPLICATION_PROTOCOL_DEFINITION ( 'international standard', 'config_control_design', 1994, #192 ) ;
#213 = DIRECTION ( 'NONE',  ( -3.491481338843133355E-15, 1.224646799147353207E-16, -1.000000000000000000 ) ) ;
#214 = ADVANCED_FACE ( 'NONE', ( #156, #203 ), #123, .T. ) ;
#215 = AXIS2_PLACEMENT_3D ( 'NONE', #151, #211, #175 ) ;
#216 = PERSON_AND_ORGANIZATION ( #168, #115 ) ;
#217 = APPROVAL_STATUS ( 'not_yet_approved' ) ;
#218 = CC_DESIGN_APPROVAL ( #142, ( #41 ) ) ;
#219 = ORIENTED_EDGE ( 'NONE', *, *, #49, .F. ) ;
#220 = ORIENTED_EDGE ( 'NONE', *, *, #174, .T. ) ;
#221 = CARTESIAN_POINT ( 'NONE',  ( 0.0000000000000000000, 0.0000000000000000000, 0.0000000000000000000 ) ) ;
#222 = AXIS2_PLACEMENT_3D ( 'NONE', #231, #139, #59 ) ;
#223 = APPROVAL_DATE_TIME ( #134, #142 ) ;
#224 = DATE_AND_TIME ( #111, #126 ) ;
#225 = DIRECTION ( 'NONE',  ( 4.275831445896958607E-31, 1.000000000000000000, 1.224646799147353207E-16 ) ) ;
#226 = CYLINDRICAL_SURFACE ( 'NONE', #48, 1.999999999999996669 ) ;
#227 = CARTESIAN_POINT ( 'NONE',  ( 0.0000000000000000000, 1.755000000000003668, 0.0000000000000000000 ) ) ;
#228 = DIRECTION ( 'NONE',  ( 4.275831445896958607E-31, 1.000000000000000000, 1.224646799147353207E-16 ) ) ;
#229 = CC_DESIGN_PERSON_AND_ORGANIZATION_ASSIGNMENT ( #195, #187, ( #146 ) ) ;
#230 = CIRCLE ( 'NONE', #200, 1.999999999999991784 ) ;
#231 = CARTESIAN_POINT ( 'NONE',  ( 1.396592535537252750E-15, -4.898587196589410610E-17, 0.3999999999999998002 ) ) ;
#232 = DATE_TIME_ROLE ( 'creation_date' ) ;
#233 = AXIS2_PLACEMENT_3D ( 'NONE', #37, #193, #11 ) ;
#234 = ADVANCED_FACE ( 'NONE', ( #180 ), #10, .F. ) ;
#235 =( GEOMETRIC_REPRESENTATION_CONTEXT ( 3 ) GLOBAL_UNCERTAINTY_ASSIGNED_CONTEXT ( ( #98 ) ) GLOBAL_UNIT_ASSIGNED_CONTEXT ( ( #57, #52, #90 ) ) REPRESENTATION_CONTEXT ( 'NONE', 'WORKASPACE' ) );
#236 = ORIENTED_EDGE ( 'NONE', *, *, #20, .T. ) ;
#237 = ADVANCED_FACE ( 'NONE', ( #38, #92 ), #140, .T. ) ;
#238 = ORIENTED_EDGE ( 'NONE', *, *, #49, .T. ) ;
#239 = EDGE_LOOP ( 'NONE', ( #129 ) ) ;
#240 = CC_DESIGN_PERSON_AND_ORGANIZATION_ASSIGNMENT ( #216, #207, ( #41 ) ) ;
#241 = EDGE_LOOP ( 'NONE', ( #127 ) ) ;
#242 = DIRECTION ( 'NONE',  ( 3.491481338843133355E-15, -1.224646799147353207E-16, 1.000000000000000000 ) ) ;
#243 = DIRECTION ( 'NONE',  ( 3.491481338843133355E-15, -1.224646799147353207E-16, 1.000000000000000000 ) ) ;
ENDSEC;
END-ISO-10303-21;
