ISO-10303-21;
HEADER;
FILE_DESCRIPTION (( 'STEP AP203' ),
    '1' );
FILE_NAME ('321656.step',
    '2021-12-02T12:56:08',
    ( '' ),
    ( '' ),
    'SwSTEP 2.0',
    'SolidWorks 2019',
    '' );
FILE_SCHEMA (( 'CONFIG_CONTROL_DESIGN' ));
ENDSEC;

DATA;
#1 = CIRCLE ( 'NONE', #209, 2.150000000000004796 ) ;
#2 = CARTESIAN_POINT ( 'NONE',  ( 4.280488952700091467E-14, 1.999999999999990452, 12.25980762113535327 ) ) ;
#3 = DATE_TIME_ROLE ( 'creation_date' ) ;
#4 = PRODUCT_RELATED_PRODUCT_CATEGORY ( 'detail', '', ( #20 ) ) ;
#5 = DIRECTION ( 'NONE',  ( -4.275831445896958607E-31, -1.000000000000000000, -1.224646799147353207E-16 ) ) ;
#6 = DIRECTION ( 'NONE',  ( -3.491481338843133355E-15, 1.224646799147353207E-16, -1.000000000000000000 ) ) ;
#7 = COORDINATED_UNIVERSAL_TIME_OFFSET ( 1, 0, .AHEAD. ) ;
#8 =( LENGTH_UNIT ( ) NAMED_UNIT ( * ) SI_UNIT ( .MILLI., .METRE. ) );
#9 = ADVANCED_FACE ( 'NONE', ( #14, #87 ), #54, .T. ) ;
#10 = DIRECTION ( 'NONE',  ( -3.491481338843133355E-15, 1.224646799147353207E-16, -1.000000000000000000 ) ) ;
#11 = SECURITY_CLASSIFICATION_LEVEL ( 'unclassified' ) ;
#12 = ADVANCED_FACE ( 'NONE', ( #207 ), #36, .F. ) ;
#13 = PERSON_AND_ORGANIZATION ( #240, #225 ) ;
#14 = FACE_OUTER_BOUND ( 'NONE', #124, .T. ) ;
#15 = MANIFOLD_SOLID_BREP ( 'Corps-Déplacer/Copier1[1]', #166 ) ;
#16 = ORIENTED_EDGE ( 'NONE', *, *, #235, .T. ) ;
#17 = EDGE_LOOP ( 'NONE', ( #108 ) ) ;
#18 = CARTESIAN_POINT ( 'NONE',  ( 2.793185071074506684E-13, -9.797174393178826052E-15, 80.00000000000000000 ) ) ;
#19 = CONICAL_SURFACE ( 'NONE', #107, 2.150000000000004796, 0.5235987755983018133 ) ;
#20 = PRODUCT ( '321656', '321656', '', ( #39 ) ) ;
#21 = CARTESIAN_POINT ( 'NONE',  ( 2.793185071074506684E-13, 1.199807826129472128E-32, 80.00000000000000000 ) ) ;
#22 = VERTEX_POINT ( 'NONE', #2 ) ;
#23 = APPROVAL ( #98, 'UNSPECIFIED' ) ;
#24 = VERTEX_POINT ( 'NONE', #94 ) ;
#25 = AXIS2_PLACEMENT_3D ( 'NONE', #18, #71, #152 ) ;
#26 = FACE_BOUND ( 'NONE', #151, .T. ) ;
#27 = DIRECTION ( 'NONE',  ( 0.0000000000000000000, 1.000000000000000000, 0.0000000000000000000 ) ) ;
#28 = DIRECTION ( 'NONE',  ( -3.491481338843133355E-15, 1.224646799147353207E-16, -1.000000000000000000 ) ) ;
#29 = CIRCLE ( 'NONE', #199, 2.150000000000004796 ) ;
#30 = DATE_AND_TIME ( #161, #180 ) ;
#31 = APPROVAL_DATE_TIME ( #200, #23 ) ;
#32 = EDGE_LOOP ( 'NONE', ( #16 ) ) ;
#33 = ORIENTED_EDGE ( 'NONE', *, *, #48, .T. ) ;
#34 = AXIS2_PLACEMENT_3D ( 'NONE', #135, #40, #76 ) ;
#35 = APPROVAL_STATUS ( 'not_yet_approved' ) ;
#36 = PLANE ( 'NONE',  #215 ) ;
#37 = DIRECTION ( 'NONE',  ( 0.0000000000000000000, 1.000000000000000000, 0.0000000000000000000 ) ) ;
#38 = CARTESIAN_POINT ( 'NONE',  ( 2.793185071074506684E-13, 1.599999999999991207, 80.00000000000000000 ) ) ;
#39 = MECHANICAL_CONTEXT ( 'NONE', #136, 'mechanical' ) ;
#40 = DIRECTION ( 'NONE',  ( 0.0000000000000000000, 0.0000000000000000000, 1.000000000000000000 ) ) ;
#41 = CC_DESIGN_APPROVAL ( #23, ( #231 ) ) ;
#42 = AXIS2_PLACEMENT_3D ( 'NONE', #170, #141, #143 ) ;
#43 = EDGE_CURVE ( 'NONE', #133, #133, #242, .T. ) ;
#44 = CARTESIAN_POINT ( 'NONE',  ( 2.793185071074506684E-13, -9.797174393178826052E-15, 80.00000000000000000 ) ) ;
#45 = PERSON_AND_ORGANIZATION_ROLE ( 'classification_officer' ) ;
#46 = LOCAL_TIME ( 13, 56, 8.000000000000000000, #192 ) ;
#47 = DIRECTION ( 'NONE',  ( 0.0000000000000000000, 1.000000000000000000, 0.0000000000000000000 ) ) ;
#48 = EDGE_CURVE ( 'NONE', #190, #190, #193, .T. ) ;
#49 = EDGE_LOOP ( 'NONE', ( #238 ) ) ;
#50 = ORIENTED_EDGE ( 'NONE', *, *, #90, .F. ) ;
#51 = FACE_BOUND ( 'NONE', #220, .T. ) ;
#52 = CARTESIAN_POINT ( 'NONE',  ( 2.779219145719134403E-13, -9.748188521212932624E-15, 79.60000000000000853 ) ) ;
#53 = AXIS2_PLACEMENT_3D ( 'NONE', #101, #83, #216 ) ;
#54 = CYLINDRICAL_SURFACE ( 'NONE', #68, 1.999999999999996669 ) ;
#55 = CARTESIAN_POINT ( 'NONE',  ( 0.0000000000000000000, 0.0000000000000000000, 0.0000000000000000000 ) ) ;
#56 = EDGE_LOOP ( 'NONE', ( #188 ) ) ;
#57 = DIRECTION ( 'NONE',  ( 4.275831445896958607E-31, 1.000000000000000000, 1.224646799147353207E-16 ) ) ;
#58 = ADVANCED_FACE ( 'NONE', ( #102 ), #82, .T. ) ;
#59 = COORDINATED_UNIVERSAL_TIME_OFFSET ( 1, 0, .AHEAD. ) ;
#60 = CARTESIAN_POINT ( 'NONE',  ( 4.189777606611760026E-14, -1.469576158976823947E-15, 12.00000000000000000 ) ) ;
#61 = APPROVAL ( #35, 'UNSPECIFIED' ) ;
#62 = CC_DESIGN_APPROVAL ( #88, ( #173 ) ) ;
#63 = ORIENTED_EDGE ( 'NONE', *, *, #168, .F. ) ;
#64 = PRODUCT_DEFINITION ( 'UNKNOWN', '', #231, #194 ) ;
#65 = EDGE_LOOP ( 'NONE', ( #63 ) ) ;
#66 = DATE_AND_TIME ( #239, #139 ) ;
#67 = CC_DESIGN_SECURITY_CLASSIFICATION ( #173, ( #231 ) ) ;
#68 = AXIS2_PLACEMENT_3D ( 'NONE', #127, #206, #112 ) ;
#69 = FACE_OUTER_BOUND ( 'NONE', #17, .T. ) ;
#70 = ORIENTED_EDGE ( 'NONE', *, *, #48, .F. ) ;
#71 = DIRECTION ( 'NONE',  ( -3.491481338843133355E-15, 1.224646799147353207E-16, -1.000000000000000000 ) ) ;
#72 = CC_DESIGN_PERSON_AND_ORGANIZATION_ASSIGNMENT ( #118, #45, ( #173 ) ) ;
#73 =( NAMED_UNIT ( * ) PLANE_ANGLE_UNIT ( ) SI_UNIT ( $, .RADIAN. ) );
#74 = CARTESIAN_POINT ( 'NONE',  ( 4.189777606611760026E-14, 2.150000000000003464, 12.00000000000000000 ) ) ;
#75 = PERSON_AND_ORGANIZATION ( #240, #225 ) ;
#76 = DIRECTION ( 'NONE',  ( 1.000000000000000000, 0.0000000000000000000, 0.0000000000000000000 ) ) ;
#77 = CARTESIAN_POINT ( 'NONE',  ( 4.189777606611760026E-14, -1.469576158976823947E-15, 12.00000000000000000 ) ) ;
#78 =( NAMED_UNIT ( * ) SI_UNIT ( $, .STERADIAN. ) SOLID_ANGLE_UNIT ( ) );
#79 = LOCAL_TIME ( 13, 56, 8.000000000000000000, #59 ) ;
#80 = FACE_OUTER_BOUND ( 'NONE', #32, .T. ) ;
#81 = DIRECTION ( 'NONE',  ( 0.0000000000000000000, 1.000000000000000000, 0.0000000000000000000 ) ) ;
#82 = PLANE ( 'NONE',  #116 ) ;
#83 = DIRECTION ( 'NONE',  ( 3.491481338843133355E-15, -1.224646799147353207E-16, 1.000000000000000000 ) ) ;
#84 = CONICAL_SURFACE ( 'NONE', #25, 1.600000000000000977, 0.7853981633974512766 ) ;
#85 = SHAPE_DEFINITION_REPRESENTATION ( #111, #99 ) ;
#86 = CARTESIAN_POINT ( 'NONE',  ( 4.280488952700091467E-14, -1.501393416138573696E-15, 12.25980762113535327 ) ) ;
#87 = FACE_OUTER_BOUND ( 'NONE', #56, .T. ) ;
#88 = APPROVAL ( #157, 'UNSPECIFIED' ) ;
#89 = EDGE_LOOP ( 'NONE', ( #50 ) ) ;
#90 = EDGE_CURVE ( 'NONE', #24, #24, #29, .T. ) ;
#91 = ADVANCED_FACE ( 'NONE', ( #80, #162 ), #126, .T. ) ;
#92 = DIRECTION ( 'NONE',  ( -3.491481338843133355E-15, 1.224646799147353207E-16, -1.000000000000000000 ) ) ;
#93 = DIRECTION ( 'NONE',  ( -4.275831445896958607E-31, -1.000000000000000000, -1.224646799147353207E-16 ) ) ;
#94 = CARTESIAN_POINT ( 'NONE',  ( 4.189777606611760026E-14, 2.150000000000003464, 12.00000000000000000 ) ) ;
#95 = DATE_AND_TIME ( #211, #46 ) ;
#96 = DIRECTION ( 'NONE',  ( -3.491481338843133355E-15, 1.224646799147353207E-16, -1.000000000000000000 ) ) ;
#97 = AXIS2_PLACEMENT_3D ( 'NONE', #86, #122, #197 ) ;
#98 = APPROVAL_STATUS ( 'not_yet_approved' ) ;
#99 = ADVANCED_BREP_SHAPE_REPRESENTATION ( '321656', ( #15, #179, #34 ), #121 ) ;
#100 = DIRECTION ( 'NONE',  ( 0.0000000000000000000, 1.000000000000000000, 0.0000000000000000000 ) ) ;
#101 = CARTESIAN_POINT ( 'NONE',  ( 4.189777606611760026E-14, 1.612241766361498571E-32, 12.00000000000000000 ) ) ;
#102 = FACE_OUTER_BOUND ( 'NONE', #109, .T. ) ;
#103 = AXIS2_PLACEMENT_3D ( 'NONE', #182, #134, #5 ) ;
#104 = ORIENTED_EDGE ( 'NONE', *, *, #114, .T. ) ;
#105 = PERSON_AND_ORGANIZATION_ROLE ( 'creator' ) ;
#106 = EDGE_CURVE ( 'NONE', #115, #115, #165, .T. ) ;
#107 = AXIS2_PLACEMENT_3D ( 'NONE', #60, #28, #100 ) ;
#108 = ORIENTED_EDGE ( 'NONE', *, *, #168, .T. ) ;
#109 = EDGE_LOOP ( 'NONE', ( #201 ) ) ;
#110 = COORDINATED_UNIVERSAL_TIME_OFFSET ( 1, 0, .AHEAD. ) ;
#111 = PRODUCT_DEFINITION_SHAPE ( 'NONE', 'NONE',  #64 ) ;
#112 = DIRECTION ( 'NONE',  ( 4.275831445896958607E-31, 1.000000000000000000, 1.224646799147353207E-16 ) ) ;
#113 = DIRECTION ( 'NONE',  ( 4.275831445896958607E-31, 1.000000000000000000, 1.224646799147353207E-16 ) ) ;
#114 = EDGE_CURVE ( 'NONE', #22, #22, #181, .T. ) ;
#115 = VERTEX_POINT ( 'NONE', #191 ) ;
#116 = AXIS2_PLACEMENT_3D ( 'NONE', #119, #6, #227 ) ;
#117 = CARTESIAN_POINT ( 'NONE',  ( 4.189777606611760026E-14, -1.469576158976823947E-15, 12.00000000000000000 ) ) ;
#118 = PERSON_AND_ORGANIZATION ( #240, #225 ) ;
#119 = CARTESIAN_POINT ( 'NONE',  ( -3.741352515159846444E-31, 1.312289809829128144E-32, -1.071565949253936244E-16 ) ) ;
#120 = DATE_AND_TIME ( #218, #147 ) ;
#121 =( GEOMETRIC_REPRESENTATION_CONTEXT ( 3 ) GLOBAL_UNCERTAINTY_ASSIGNED_CONTEXT ( ( #229 ) ) GLOBAL_UNIT_ASSIGNED_CONTEXT ( ( #8, #73, #78 ) ) REPRESENTATION_CONTEXT ( 'NONE', 'WORKASPACE' ) );
#122 = DIRECTION ( 'NONE',  ( -3.491481338843133355E-15, 1.224646799147353207E-16, -1.000000000000000000 ) ) ;
#123 = ADVANCED_FACE ( 'NONE', ( #232, #51 ), #84, .T. ) ;
#124 = EDGE_LOOP ( 'NONE', ( #187 ) ) ;
#125 = ORIENTED_EDGE ( 'NONE', *, *, #235, .F. ) ;
#126 = CONICAL_SURFACE ( 'NONE', #149, 1.750000000000003553, 0.7853981633974498333 ) ;
#127 = CARTESIAN_POINT ( 'NONE',  ( 0.0000000000000000000, 0.0000000000000000000, 0.0000000000000000000 ) ) ;
#128 = PERSON_AND_ORGANIZATION_ROLE ( 'design_owner' ) ;
#129 = DIRECTION ( 'NONE',  ( -3.491481338843133355E-15, 1.224646799147353207E-16, -1.000000000000000000 ) ) ;
#130 = EDGE_LOOP ( 'NONE', ( #125 ) ) ;
#131 = APPROVAL_ROLE ( '' ) ;
#132 = FACE_OUTER_BOUND ( 'NONE', #236, .T. ) ;
#133 = VERTEX_POINT ( 'NONE', #175 ) ;
#134 = DIRECTION ( 'NONE',  ( 3.491481338843133355E-15, -1.224646799147353207E-16, 1.000000000000000000 ) ) ;
#135 = CARTESIAN_POINT ( 'NONE',  ( 0.0000000000000000000, 0.0000000000000000000, 0.0000000000000000000 ) ) ;
#136 = APPLICATION_CONTEXT ( 'configuration controlled 3d designs of mechanical parts and assemblies' ) ;
#137 = DIRECTION ( 'NONE',  ( -3.491481338843133355E-15, 1.224646799147353207E-16, -1.000000000000000000 ) ) ;
#138 = AXIS2_PLACEMENT_3D ( 'NONE', #44, #158, #47 ) ;
#139 = LOCAL_TIME ( 13, 56, 8.000000000000000000, #110 ) ;
#140 = PLANE ( 'NONE',  #103 ) ;
#141 = DIRECTION ( 'NONE',  ( -3.491481338843133355E-15, 1.224646799147353207E-16, -1.000000000000000000 ) ) ;
#142 = APPLICATION_CONTEXT ( 'configuration controlled 3d designs of mechanical parts and assemblies' ) ;
#143 = DIRECTION ( 'NONE',  ( 4.275831445896958607E-31, 1.000000000000000000, 1.224646799147353207E-16 ) ) ;
#144 = ORIENTED_EDGE ( 'NONE', *, *, #106, .F. ) ;
#145 = PERSON_AND_ORGANIZATION ( #240, #225 ) ;
#146 = COORDINATED_UNIVERSAL_TIME_OFFSET ( 1, 0, .AHEAD. ) ;
#147 = LOCAL_TIME ( 13, 56, 8.000000000000000000, #7 ) ;
#148 = APPROVAL_PERSON_ORGANIZATION ( #75, #23, #228 ) ;
#149 = AXIS2_PLACEMENT_3D ( 'NONE', #186, #230, #93 ) ;
#150 = FACE_OUTER_BOUND ( 'NONE', #130, .T. ) ;
#151 = EDGE_LOOP ( 'NONE', ( #104 ) ) ;
#152 = DIRECTION ( 'NONE',  ( 0.0000000000000000000, 1.000000000000000000, 0.0000000000000000000 ) ) ;
#153 = APPLICATION_PROTOCOL_DEFINITION ( 'international standard', 'config_control_design', 1994, #142 ) ;
#154 = ADVANCED_FACE ( 'NONE', ( #132 ), #140, .F. ) ;
#155 = VERTEX_POINT ( 'NONE', #226 ) ;
#156 = PERSON_AND_ORGANIZATION ( #240, #225 ) ;
#157 = APPROVAL_STATUS ( 'not_yet_approved' ) ;
#158 = DIRECTION ( 'NONE',  ( -3.491481338843133355E-15, 1.224646799147353207E-16, -1.000000000000000000 ) ) ;
#159 = AXIS2_PLACEMENT_3D ( 'NONE', #117, #241, #37 ) ;
#160 = APPROVAL_PERSON_ORGANIZATION ( #145, #61, #131 ) ;
#161 = CALENDAR_DATE ( 2021, 2, 12 ) ;
#162 = FACE_BOUND ( 'NONE', #185, .T. ) ;
#163 = APPROVAL_DATE_TIME ( #30, #88 ) ;
#164 = CC_DESIGN_APPROVAL ( #61, ( #64 ) ) ;
#165 = CIRCLE ( 'NONE', #42, 1.750000000000003553 ) ;
#166 = CLOSED_SHELL ( 'NONE', ( #154, #219, #9, #123, #12 ) ) ;
#167 = FACE_OUTER_BOUND ( 'NONE', #65, .T. ) ;
#168 = EDGE_CURVE ( 'NONE', #172, #172, #233, .T. ) ;
#169 = APPROVAL_DATE_TIME ( #66, #61 ) ;
#170 = CARTESIAN_POINT ( 'NONE',  ( -7.482705030319692888E-31, 2.624579619658256288E-32, -2.143131898507872488E-16 ) ) ;
#171 = CC_DESIGN_PERSON_AND_ORGANIZATION_ASSIGNMENT ( #205, #128, ( #20 ) ) ;
#172 = VERTEX_POINT ( 'NONE', #74 ) ;
#173 = SECURITY_CLASSIFICATION ( '', '', #11 ) ;
#174 = CLOSED_SHELL ( 'NONE', ( #195, #217, #58, #91 ) ) ;
#175 = CARTESIAN_POINT ( 'NONE',  ( 2.779219145719134403E-13, 1.999999999999991340, 79.60000000000000853 ) ) ;
#176 = CARTESIAN_POINT ( 'NONE',  ( 1.396592535537252750E-15, -4.898587196589410610E-17, 0.3999999999999998002 ) ) ;
#177 = PERSON_AND_ORGANIZATION_ROLE ( 'design_supplier' ) ;
#178 = CC_DESIGN_DATE_AND_TIME_ASSIGNMENT ( #120, #198, ( #173 ) ) ;
#179 = MANIFOLD_SOLID_BREP ( 'Corps-Déplacer/Copier1[2]', #174 ) ;
#180 = LOCAL_TIME ( 13, 56, 8.000000000000000000, #146 ) ;
#181 = CIRCLE ( 'NONE', #97, 1.999999999999991784 ) ;
#182 = CARTESIAN_POINT ( 'NONE',  ( 4.189777606611760026E-14, 1.612241766361498571E-32, 12.00000000000000000 ) ) ;
#183 = APPROVAL_PERSON_ORGANIZATION ( #156, #88, #202 ) ;
#184 = PERSON_AND_ORGANIZATION_ROLE ( 'creator' ) ;
#185 = EDGE_LOOP ( 'NONE', ( #144 ) ) ;
#186 = CARTESIAN_POINT ( 'NONE',  ( -7.482705030319692888E-31, 2.624579619658256288E-32, -2.143131898507872488E-16 ) ) ;
#187 = ORIENTED_EDGE ( 'NONE', *, *, #114, .F. ) ;
#188 = ORIENTED_EDGE ( 'NONE', *, *, #43, .T. ) ;
#189 = ORIENTED_EDGE ( 'NONE', *, *, #90, .T. ) ;
#190 = VERTEX_POINT ( 'NONE', #38 ) ;
#191 = CARTESIAN_POINT ( 'NONE',  ( -8.552847072295026068E-47, 1.750000000000003553, 0.0000000000000000000 ) ) ;
#192 = COORDINATED_UNIVERSAL_TIME_OFFSET ( 1, 0, .AHEAD. ) ;
#193 = CIRCLE ( 'NONE', #138, 1.600000000000000977 ) ;
#194 = DESIGN_CONTEXT ( 'detailed design', #142, 'design' ) ;
#195 = ADVANCED_FACE ( 'NONE', ( #69, #150 ), #223, .T. ) ;
#196 = FACE_OUTER_BOUND ( 'NONE', #89, .T. ) ;
#197 = DIRECTION ( 'NONE',  ( 0.0000000000000000000, 1.000000000000000000, 0.0000000000000000000 ) ) ;
#198 = DATE_TIME_ROLE ( 'classification_date' ) ;
#199 = AXIS2_PLACEMENT_3D ( 'NONE', #77, #137, #27 ) ;
#200 = DATE_AND_TIME ( #214, #79 ) ;
#201 = ORIENTED_EDGE ( 'NONE', *, *, #106, .T. ) ;
#202 = APPROVAL_ROLE ( '' ) ;
#203 = AXIS2_PLACEMENT_3D ( 'NONE', #52, #10, #81 ) ;
#204 = PERSON_AND_ORGANIZATION ( #240, #225 ) ;
#205 = PERSON_AND_ORGANIZATION ( #240, #225 ) ;
#206 = DIRECTION ( 'NONE',  ( -3.491481338843133355E-15, 1.224646799147353207E-16, -1.000000000000000000 ) ) ;
#207 = FACE_OUTER_BOUND ( 'NONE', #224, .T. ) ;
#208 = CC_DESIGN_DATE_AND_TIME_ASSIGNMENT ( #95, #3, ( #64 ) ) ;
#209 = AXIS2_PLACEMENT_3D ( 'NONE', #176, #96, #210 ) ;
#210 = DIRECTION ( 'NONE',  ( 4.478906847412166076E-31, 1.000000000000000000, 1.260700200564537133E-16 ) ) ;
#211 = CALENDAR_DATE ( 2021, 2, 12 ) ;
#212 = APPLICATION_PROTOCOL_DEFINITION ( 'international standard', 'config_control_design', 1994, #136 ) ;
#213 = AXIS2_PLACEMENT_3D ( 'NONE', #55, #129, #113 ) ;
#214 = CALENDAR_DATE ( 2021, 2, 12 ) ;
#215 = AXIS2_PLACEMENT_3D ( 'NONE', #21, #92, #57 ) ;
#216 = DIRECTION ( 'NONE',  ( -4.275831445896958607E-31, -1.000000000000000000, -1.224646799147353207E-16 ) ) ;
#217 = ADVANCED_FACE ( 'NONE', ( #167 ), #243, .T. ) ;
#218 = CALENDAR_DATE ( 2021, 2, 12 ) ;
#219 = ADVANCED_FACE ( 'NONE', ( #26, #196 ), #19, .T. ) ;
#220 = EDGE_LOOP ( 'NONE', ( #33 ) ) ;
#221 = CC_DESIGN_PERSON_AND_ORGANIZATION_ASSIGNMENT ( #204, #184, ( #231 ) ) ;
#222 = PERSON_AND_ORGANIZATION ( #240, #225 ) ;
#223 = CYLINDRICAL_SURFACE ( 'NONE', #213, 2.150000000000004796 ) ;
#224 = EDGE_LOOP ( 'NONE', ( #70 ) ) ;
#225 = ORGANIZATION ( 'UNSPECIFIED', 'UNSPECIFIED', '' ) ;
#226 = CARTESIAN_POINT ( 'NONE',  ( 1.396592535537253737E-15, 2.150000000000004796, 0.4000000000000000777 ) ) ;
#227 = DIRECTION ( 'NONE',  ( 4.275831445896958607E-31, 1.000000000000000000, 1.224646799147353207E-16 ) ) ;
#228 = APPROVAL_ROLE ( '' ) ;
#229 = UNCERTAINTY_MEASURE_WITH_UNIT (LENGTH_MEASURE( 1.000000000000000082E-05 ), #8, 'distance_accuracy_value', 'NONE');
#230 = DIRECTION ( 'NONE',  ( 3.491481338843133355E-15, -1.224646799147353207E-16, 1.000000000000000000 ) ) ;
#231 = PRODUCT_DEFINITION_FORMATION_WITH_SPECIFIED_SOURCE ( 'ANY', '', #20, .NOT_KNOWN. ) ;
#232 = FACE_OUTER_BOUND ( 'NONE', #49, .T. ) ;
#233 = CIRCLE ( 'NONE', #159, 2.150000000000004796 ) ;
#234 = CC_DESIGN_PERSON_AND_ORGANIZATION_ASSIGNMENT ( #13, #177, ( #231 ) ) ;
#235 = EDGE_CURVE ( 'NONE', #155, #155, #1, .T. ) ;
#236 = EDGE_LOOP ( 'NONE', ( #189 ) ) ;
#237 = CC_DESIGN_PERSON_AND_ORGANIZATION_ASSIGNMENT ( #222, #105, ( #64 ) ) ;
#238 = ORIENTED_EDGE ( 'NONE', *, *, #43, .F. ) ;
#239 = CALENDAR_DATE ( 2021, 2, 12 ) ;
#240 = PERSON ( 'UNSPECIFIED', 'UNSPECIFIED', 'UNSPECIFIED', ('UNSPECIFIED'), ('UNSPECIFIED'), ('UNSPECIFIED') ) ;
#241 = DIRECTION ( 'NONE',  ( -3.491481338843133355E-15, 1.224646799147353207E-16, -1.000000000000000000 ) ) ;
#242 = CIRCLE ( 'NONE', #203, 2.000000000000000888 ) ;
#243 = PLANE ( 'NONE',  #53 ) ;
ENDSEC;
END-ISO-10303-21;
