ISO-10303-21;
HEADER;
FILE_DESCRIPTION (( 'STEP AP203' ),
    '1' );
FILE_NAME ('321655.step',
    '2021-12-02T12:56:07',
    ( '' ),
    ( '' ),
    'SwSTEP 2.0',
    'SolidWorks 2019',
    '' );
FILE_SCHEMA (( 'CONFIG_CONTROL_DESIGN' ));
ENDSEC;

DATA;
#1 = AXIS2_PLACEMENT_3D ( 'NONE', #121, #188, #25 ) ;
#2 = ORIENTED_EDGE ( 'NONE', *, *, #232, .T. ) ;
#3 = APPLICATION_CONTEXT ( 'configuration controlled 3d designs of mechanical parts and assemblies' ) ;
#4 = PRODUCT_RELATED_PRODUCT_CATEGORY ( 'detail', '', ( #45 ) ) ;
#5 = CYLINDRICAL_SURFACE ( 'NONE', #16, 1.999999999999996669 ) ;
#6 = FACE_OUTER_BOUND ( 'NONE', #37, .T. ) ;
#7 = PRODUCT_DEFINITION ( 'UNKNOWN', '', #89, #225 ) ;
#8 = CONICAL_SURFACE ( 'NONE', #168, 2.145000000000004903, 0.5235987755983009251 ) ;
#9 = AXIS2_PLACEMENT_3D ( 'NONE', #190, #123, #32 ) ;
#10 = ADVANCED_BREP_SHAPE_REPRESENTATION ( '321655', ( #176, #14, #9 ), #65 ) ;
#11 = ADVANCED_FACE ( 'NONE', ( #6, #83 ), #5, .T. ) ;
#12 = LOCAL_TIME ( 13, 56, 7.000000000000000000, #233 ) ;
#13 = APPROVAL_DATE_TIME ( #50, #75 ) ;
#14 = MANIFOLD_SOLID_BREP ( 'Corps-Déplacer/Copier1[2]', #226 ) ;
#15 = SECURITY_CLASSIFICATION_LEVEL ( 'unclassified' ) ;
#16 = AXIS2_PLACEMENT_3D ( 'NONE', #223, #243, #85 ) ;
#17 = VERTEX_POINT ( 'NONE', #199 ) ;
#18 = FACE_OUTER_BOUND ( 'NONE', #29, .T. ) ;
#19 = DIRECTION ( 'NONE',  ( 0.0000000000000000000, 1.000000000000000000, 0.0000000000000000000 ) ) ;
#20 = AXIS2_PLACEMENT_3D ( 'NONE', #197, #36, #182 ) ;
#21 = DIRECTION ( 'NONE',  ( -3.491481338843133355E-15, 1.224646799147353207E-16, -1.000000000000000000 ) ) ;
#22 = CC_DESIGN_DATE_AND_TIME_ASSIGNMENT ( #72, #229, ( #7 ) ) ;
#23 = DIRECTION ( 'NONE',  ( -3.491481338843133355E-15, 1.224646799147353207E-16, -1.000000000000000000 ) ) ;
#24 = PERSON ( 'UNSPECIFIED', 'UNSPECIFIED', 'UNSPECIFIED', ('UNSPECIFIED'), ('UNSPECIFIED'), ('UNSPECIFIED') ) ;
#25 = DIRECTION ( 'NONE',  ( 0.0000000000000000000, 1.000000000000000000, 0.0000000000000000000 ) ) ;
#26 = APPROVAL_DATE_TIME ( #41, #95 ) ;
#27 = ORIENTED_EDGE ( 'NONE', *, *, #63, .F. ) ;
#28 = MECHANICAL_CONTEXT ( 'NONE', #102, 'mechanical' ) ;
#29 = EDGE_LOOP ( 'NONE', ( #88 ) ) ;
#30 = CONICAL_SURFACE ( 'NONE', #126, 1.745000000000003659, 0.7853981633974498333 ) ;
#31 = CC_DESIGN_APPROVAL ( #236, ( #7 ) ) ;
#32 = DIRECTION ( 'NONE',  ( 1.000000000000000000, 0.0000000000000000000, 0.0000000000000000000 ) ) ;
#33 = PERSON_AND_ORGANIZATION ( #24, #143 ) ;
#34 = CIRCLE ( 'NONE', #1, 1.999999999999991784 ) ;
#35 = DIRECTION ( 'NONE',  ( 0.0000000000000000000, 1.000000000000000000, 0.0000000000000000000 ) ) ;
#36 = DIRECTION ( 'NONE',  ( 3.491481338843133355E-15, -1.224646799147353207E-16, 1.000000000000000000 ) ) ;
#37 = EDGE_LOOP ( 'NONE', ( #132 ) ) ;
#38 = EDGE_LOOP ( 'NONE', ( #120 ) ) ;
#39 = APPROVAL_PERSON_ORGANIZATION ( #87, #236, #155 ) ;
#40 = DIRECTION ( 'NONE',  ( 0.0000000000000000000, 1.000000000000000000, 0.0000000000000000000 ) ) ;
#41 = DATE_AND_TIME ( #205, #228 ) ;
#42 = DIRECTION ( 'NONE',  ( 0.0000000000000000000, 1.000000000000000000, 0.0000000000000000000 ) ) ;
#43 = CC_DESIGN_APPROVAL ( #95, ( #54 ) ) ;
#44 = ADVANCED_FACE ( 'NONE', ( #135, #61 ), #193, .T. ) ;
#45 = PRODUCT ( '321655', '321655', '', ( #28 ) ) ;
#46 = CIRCLE ( 'NONE', #49, 2.000000000000000888 ) ;
#47 = CALENDAR_DATE ( 2021, 2, 12 ) ;
#48 = CC_DESIGN_PERSON_AND_ORGANIZATION_ASSIGNMENT ( #194, #108, ( #45 ) ) ;
#49 = AXIS2_PLACEMENT_3D ( 'NONE', #101, #165, #138 ) ;
#50 = DATE_AND_TIME ( #110, #104 ) ;
#51 = CARTESIAN_POINT ( 'NONE',  ( 8.552847072295026068E-47, 1.745000000000003659, 0.0000000000000000000 ) ) ;
#52 = ORIENTED_EDGE ( 'NONE', *, *, #63, .T. ) ;
#53 = FACE_BOUND ( 'NONE', #173, .T. ) ;
#54 = SECURITY_CLASSIFICATION ( '', '', #15 ) ;
#55 = PLANE ( 'NONE',  #71 ) ;
#56 = EDGE_LOOP ( 'NONE', ( #66 ) ) ;
#57 = DIRECTION ( 'NONE',  ( 4.275831445896958607E-31, 1.000000000000000000, 1.224646799147353207E-16 ) ) ;
#58 = APPROVAL_STATUS ( 'not_yet_approved' ) ;
#59 =( LENGTH_UNIT ( ) NAMED_UNIT ( * ) SI_UNIT ( .MILLI., .METRE. ) );
#60 = DIRECTION ( 'NONE',  ( -3.491481338843133355E-15, 1.224646799147353207E-16, -1.000000000000000000 ) ) ;
#61 = FACE_BOUND ( 'NONE', #115, .T. ) ;
#62 = COORDINATED_UNIVERSAL_TIME_OFFSET ( 1, 0, .AHEAD. ) ;
#63 = EDGE_CURVE ( 'NONE', #74, #74, #46, .T. ) ;
#64 = DIRECTION ( 'NONE',  ( -4.275831445896958607E-31, -1.000000000000000000, -1.224646799147353207E-16 ) ) ;
#65 =( GEOMETRIC_REPRESENTATION_CONTEXT ( 3 ) GLOBAL_UNCERTAINTY_ASSIGNED_CONTEXT ( ( #171 ) ) GLOBAL_UNIT_ASSIGNED_CONTEXT ( ( #59, #183, #200 ) ) REPRESENTATION_CONTEXT ( 'NONE', 'WORKASPACE' ) );
#66 = ORIENTED_EDGE ( 'NONE', *, *, #232, .F. ) ;
#67 = EDGE_CURVE ( 'NONE', #113, #113, #210, .T. ) ;
#68 = CIRCLE ( 'NONE', #141, 1.745000000000003659 ) ;
#69 = PERSON_AND_ORGANIZATION ( #24, #143 ) ;
#70 = PERSON_AND_ORGANIZATION_ROLE ( 'creator' ) ;
#71 = AXIS2_PLACEMENT_3D ( 'NONE', #92, #237, #57 ) ;
#72 = DATE_AND_TIME ( #47, #12 ) ;
#73 = FACE_OUTER_BOUND ( 'NONE', #147, .T. ) ;
#74 = VERTEX_POINT ( 'NONE', #81 ) ;
#75 = APPROVAL ( #212, 'UNSPECIFIED' ) ;
#76 = DIRECTION ( 'NONE',  ( 4.275831445896958607E-31, 1.000000000000000000, 1.224646799147353207E-16 ) ) ;
#77 = DATE_AND_TIME ( #187, #189 ) ;
#78 = ORIENTED_EDGE ( 'NONE', *, *, #128, .F. ) ;
#79 = CARTESIAN_POINT ( 'NONE',  ( 2.793185071074506684E-13, 1.599999999999991207, 80.00000000000000000 ) ) ;
#80 = CC_DESIGN_PERSON_AND_ORGANIZATION_ASSIGNMENT ( #91, #156, ( #54 ) ) ;
#81 = CARTESIAN_POINT ( 'NONE',  ( 2.779219145719134403E-13, 1.999999999999991340, 79.60000000000000853 ) ) ;
#82 = SHAPE_DEFINITION_REPRESENTATION ( #124, #10 ) ;
#83 = FACE_OUTER_BOUND ( 'NONE', #241, .T. ) ;
#84 = FACE_BOUND ( 'NONE', #169, .T. ) ;
#85 = DIRECTION ( 'NONE',  ( 4.275831445896958607E-31, 1.000000000000000000, 1.224646799147353207E-16 ) ) ;
#86 = AXIS2_PLACEMENT_3D ( 'NONE', #196, #163, #133 ) ;
#87 = PERSON_AND_ORGANIZATION ( #24, #143 ) ;
#88 = ORIENTED_EDGE ( 'NONE', *, *, #67, .T. ) ;
#89 = PRODUCT_DEFINITION_FORMATION_WITH_SPECIFIED_SOURCE ( 'ANY', '', #45, .NOT_KNOWN. ) ;
#90 = DATE_AND_TIME ( #140, #234 ) ;
#91 = PERSON_AND_ORGANIZATION ( #24, #143 ) ;
#92 = CARTESIAN_POINT ( 'NONE',  ( -3.730662936545104087E-31, 1.308540410372473746E-32, -1.068504332256067930E-16 ) ) ;
#93 = CIRCLE ( 'NONE', #222, 2.145000000000004903 ) ;
#94 = VERTEX_POINT ( 'NONE', #217 ) ;
#95 = APPROVAL ( #58, 'UNSPECIFIED' ) ;
#96 = FACE_OUTER_BOUND ( 'NONE', #56, .T. ) ;
#97 = EDGE_CURVE ( 'NONE', #238, #238, #93, .T. ) ;
#98 = FACE_OUTER_BOUND ( 'NONE', #38, .T. ) ;
#99 = ADVANCED_FACE ( 'NONE', ( #186 ), #152, .F. ) ;
#100 = FACE_OUTER_BOUND ( 'NONE', #170, .T. ) ;
#101 = CARTESIAN_POINT ( 'NONE',  ( 2.779219145719134403E-13, -9.748188521212932624E-15, 79.60000000000000853 ) ) ;
#102 = APPLICATION_CONTEXT ( 'configuration controlled 3d designs of mechanical parts and assemblies' ) ;
#103 = DIRECTION ( 'NONE',  ( -3.491481338843133355E-15, 1.224646799147353207E-16, -1.000000000000000000 ) ) ;
#104 = LOCAL_TIME ( 13, 56, 7.000000000000000000, #125 ) ;
#105 = FACE_OUTER_BOUND ( 'NONE', #151, .T. ) ;
#106 = ORIENTED_EDGE ( 'NONE', *, *, #191, .T. ) ;
#107 = ORIENTED_EDGE ( 'NONE', *, *, #67, .F. ) ;
#108 = PERSON_AND_ORGANIZATION_ROLE ( 'design_owner' ) ;
#109 = APPROVAL_PERSON_ORGANIZATION ( #69, #75, #177 ) ;
#110 = CALENDAR_DATE ( 2021, 2, 12 ) ;
#111 = PERSON_AND_ORGANIZATION_ROLE ( 'creator' ) ;
#112 = EDGE_CURVE ( 'NONE', #94, #94, #34, .T. ) ;
#113 = VERTEX_POINT ( 'NONE', #216 ) ;
#114 = DIRECTION ( 'NONE',  ( -4.275831445896958607E-31, -1.000000000000000000, -1.224646799147353207E-16 ) ) ;
#115 = EDGE_LOOP ( 'NONE', ( #239 ) ) ;
#116 = DIRECTION ( 'NONE',  ( -3.491481338843133355E-15, 1.224646799147353207E-16, -1.000000000000000000 ) ) ;
#117 = AXIS2_PLACEMENT_3D ( 'NONE', #145, #242, #19 ) ;
#118 = AXIS2_PLACEMENT_3D ( 'NONE', #202, #21, #42 ) ;
#119 = ADVANCED_FACE ( 'NONE', ( #105, #84 ), #30, .T. ) ;
#120 = ORIENTED_EDGE ( 'NONE', *, *, #97, .F. ) ;
#121 = CARTESIAN_POINT ( 'NONE',  ( 4.277465241163813963E-14, -1.500332840899848652E-15, 12.25114736709750929 ) ) ;
#122 = ORIENTED_EDGE ( 'NONE', *, *, #191, .F. ) ;
#123 = DIRECTION ( 'NONE',  ( 0.0000000000000000000, 0.0000000000000000000, 1.000000000000000000 ) ) ;
#124 = PRODUCT_DEFINITION_SHAPE ( 'NONE', 'NONE',  #7 ) ;
#125 = COORDINATED_UNIVERSAL_TIME_OFFSET ( 1, 0, .AHEAD. ) ;
#126 = AXIS2_PLACEMENT_3D ( 'NONE', #153, #224, #64 ) ;
#127 = PERSON_AND_ORGANIZATION ( #24, #143 ) ;
#128 = EDGE_CURVE ( 'NONE', #131, #131, #195, .T. ) ;
#129 = CARTESIAN_POINT ( 'NONE',  ( 4.189777606611760026E-14, 1.608492366904844173E-32, 12.00000000000000000 ) ) ;
#130 = PLANE ( 'NONE',  #185 ) ;
#131 = VERTEX_POINT ( 'NONE', #79 ) ;
#132 = ORIENTED_EDGE ( 'NONE', *, *, #112, .F. ) ;
#133 = DIRECTION ( 'NONE',  ( 4.489347189713826310E-31, 1.000000000000000000, 1.263638895670748224E-16 ) ) ;
#134 = APPROVAL_ROLE ( '' ) ;
#135 = FACE_OUTER_BOUND ( 'NONE', #139, .T. ) ;
#136 = AXIS2_PLACEMENT_3D ( 'NONE', #206, #23, #167 ) ;
#137 = DIRECTION ( 'NONE',  ( 0.0000000000000000000, 1.000000000000000000, 0.0000000000000000000 ) ) ;
#138 = DIRECTION ( 'NONE',  ( 0.0000000000000000000, 1.000000000000000000, 0.0000000000000000000 ) ) ;
#139 = EDGE_LOOP ( 'NONE', ( #27 ) ) ;
#140 = CALENDAR_DATE ( 2021, 2, 12 ) ;
#141 = AXIS2_PLACEMENT_3D ( 'NONE', #148, #116, #181 ) ;
#142 = APPROVAL_DATE_TIME ( #90, #236 ) ;
#143 = ORGANIZATION ( 'UNSPECIFIED', 'UNSPECIFIED', '' ) ;
#144 = FACE_OUTER_BOUND ( 'NONE', #192, .T. ) ;
#145 = CARTESIAN_POINT ( 'NONE',  ( 2.793185071074506684E-13, -9.797174393178826052E-15, 80.00000000000000000 ) ) ;
#146 = CARTESIAN_POINT ( 'NONE',  ( 4.189777606611760026E-14, 2.145000000000003570, 12.00000000000000000 ) ) ;
#147 = EDGE_LOOP ( 'NONE', ( #106 ) ) ;
#148 = CARTESIAN_POINT ( 'NONE',  ( -7.461325873090208174E-31, 2.617080820744947492E-32, -2.137008664512135859E-16 ) ) ;
#149 = DIRECTION ( 'NONE',  ( 3.491481338843133355E-15, -1.224646799147353207E-16, 1.000000000000000000 ) ) ;
#150 = ADVANCED_FACE ( 'NONE', ( #53, #98 ), #8, .T. ) ;
#151 = EDGE_LOOP ( 'NONE', ( #2 ) ) ;
#152 = PLANE ( 'NONE',  #136 ) ;
#153 = CARTESIAN_POINT ( 'NONE',  ( -7.461325873090208174E-31, 2.617080820744947492E-32, -2.137008664512135859E-16 ) ) ;
#154 = AXIS2_PLACEMENT_3D ( 'NONE', #221, #60, #137 ) ;
#155 = APPROVAL_ROLE ( '' ) ;
#156 = PERSON_AND_ORGANIZATION_ROLE ( 'classification_officer' ) ;
#157 = CYLINDRICAL_SURFACE ( 'NONE', #172, 2.145000000000004903 ) ;
#158 = DIRECTION ( 'NONE',  ( -3.491481338843133355E-15, 1.224646799147353207E-16, -1.000000000000000000 ) ) ;
#159 = CC_DESIGN_APPROVAL ( #75, ( #89 ) ) ;
#160 = CIRCLE ( 'NONE', #86, 2.145000000000004903 ) ;
#161 = EDGE_LOOP ( 'NONE', ( #78 ) ) ;
#162 = ADVANCED_FACE ( 'NONE', ( #144 ), #130, .T. ) ;
#163 = DIRECTION ( 'NONE',  ( -3.491481338843133355E-15, 1.224646799147353207E-16, -1.000000000000000000 ) ) ;
#164 = ADVANCED_FACE ( 'NONE', ( #100 ), #235, .F. ) ;
#165 = DIRECTION ( 'NONE',  ( -3.491481338843133355E-15, 1.224646799147353207E-16, -1.000000000000000000 ) ) ;
#166 = PERSON_AND_ORGANIZATION ( #24, #143 ) ;
#167 = DIRECTION ( 'NONE',  ( 4.275831445896958607E-31, 1.000000000000000000, 1.224646799147353207E-16 ) ) ;
#168 = AXIS2_PLACEMENT_3D ( 'NONE', #184, #198, #35 ) ;
#169 = EDGE_LOOP ( 'NONE', ( #122 ) ) ;
#170 = EDGE_LOOP ( 'NONE', ( #213 ) ) ;
#171 = UNCERTAINTY_MEASURE_WITH_UNIT (LENGTH_MEASURE( 1.000000000000000082E-05 ), #59, 'distance_accuracy_value', 'NONE');
#172 = AXIS2_PLACEMENT_3D ( 'NONE', #219, #158, #76 ) ;
#173 = EDGE_LOOP ( 'NONE', ( #207 ) ) ;
#174 = CC_DESIGN_PERSON_AND_ORGANIZATION_ASSIGNMENT ( #231, #70, ( #89 ) ) ;
#175 = APPLICATION_PROTOCOL_DEFINITION ( 'international standard', 'config_control_design', 1994, #3 ) ;
#176 = MANIFOLD_SOLID_BREP ( 'Corps-Déplacer/Copier1[1]', #203 ) ;
#177 = APPROVAL_ROLE ( '' ) ;
#178 = APPROVAL_PERSON_ORGANIZATION ( #166, #95, #134 ) ;
#179 = COORDINATED_UNIVERSAL_TIME_OFFSET ( 1, 0, .AHEAD. ) ;
#180 = PERSON_AND_ORGANIZATION_ROLE ( 'design_supplier' ) ;
#181 = DIRECTION ( 'NONE',  ( 4.275831445896958607E-31, 1.000000000000000000, 1.224646799147353207E-16 ) ) ;
#182 = DIRECTION ( 'NONE',  ( -4.275831445896958607E-31, -1.000000000000000000, -1.224646799147353207E-16 ) ) ;
#183 =( NAMED_UNIT ( * ) PLANE_ANGLE_UNIT ( ) SI_UNIT ( $, .RADIAN. ) );
#184 = CARTESIAN_POINT ( 'NONE',  ( 4.189777606611760026E-14, -1.469576158976823947E-15, 12.00000000000000000 ) ) ;
#185 = AXIS2_PLACEMENT_3D ( 'NONE', #129, #149, #114 ) ;
#186 = FACE_OUTER_BOUND ( 'NONE', #161, .T. ) ;
#187 = CALENDAR_DATE ( 2021, 2, 12 ) ;
#188 = DIRECTION ( 'NONE',  ( -3.491481338843133355E-15, 1.224646799147353207E-16, -1.000000000000000000 ) ) ;
#189 = LOCAL_TIME ( 13, 56, 7.000000000000000000, #220 ) ;
#190 = CARTESIAN_POINT ( 'NONE',  ( 0.0000000000000000000, 0.0000000000000000000, 0.0000000000000000000 ) ) ;
#191 = EDGE_CURVE ( 'NONE', #214, #214, #68, .T. ) ;
#192 = EDGE_LOOP ( 'NONE', ( #107 ) ) ;
#193 = CONICAL_SURFACE ( 'NONE', #118, 1.600000000000000977, 0.7853981633974512766 ) ;
#194 = PERSON_AND_ORGANIZATION ( #24, #143 ) ;
#195 = CIRCLE ( 'NONE', #117, 1.600000000000000977 ) ;
#196 = CARTESIAN_POINT ( 'NONE',  ( 1.396592535537252750E-15, -4.898587196589410610E-17, 0.3999999999999998002 ) ) ;
#197 = CARTESIAN_POINT ( 'NONE',  ( 4.189777606611760026E-14, 1.608492366904844173E-32, 12.00000000000000000 ) ) ;
#198 = DIRECTION ( 'NONE',  ( -3.491481338843133355E-15, 1.224646799147353207E-16, -1.000000000000000000 ) ) ;
#199 = CARTESIAN_POINT ( 'NONE',  ( 1.396592535537253737E-15, 2.145000000000004903, 0.4000000000000000777 ) ) ;
#200 =( NAMED_UNIT ( * ) SI_UNIT ( $, .STERADIAN. ) SOLID_ANGLE_UNIT ( ) );
#201 = CC_DESIGN_PERSON_AND_ORGANIZATION_ASSIGNMENT ( #33, #111, ( #7 ) ) ;
#202 = CARTESIAN_POINT ( 'NONE',  ( 2.793185071074506684E-13, -9.797174393178826052E-15, 80.00000000000000000 ) ) ;
#203 = CLOSED_SHELL ( 'NONE', ( #164, #150, #11, #44, #99 ) ) ;
#204 = CARTESIAN_POINT ( 'NONE',  ( 4.189777606611760026E-14, -1.469576158976823947E-15, 12.00000000000000000 ) ) ;
#205 = CALENDAR_DATE ( 2021, 2, 12 ) ;
#206 = CARTESIAN_POINT ( 'NONE',  ( 2.793185071074506684E-13, 1.199807826129472128E-32, 80.00000000000000000 ) ) ;
#207 = ORIENTED_EDGE ( 'NONE', *, *, #112, .T. ) ;
#208 = ADVANCED_FACE ( 'NONE', ( #18, #96 ), #157, .T. ) ;
#209 = APPLICATION_PROTOCOL_DEFINITION ( 'international standard', 'config_control_design', 1994, #102 ) ;
#210 = CIRCLE ( 'NONE', #154, 2.145000000000004903 ) ;
#211 = ADVANCED_FACE ( 'NONE', ( #73 ), #55, .T. ) ;
#212 = APPROVAL_STATUS ( 'not_yet_approved' ) ;
#213 = ORIENTED_EDGE ( 'NONE', *, *, #97, .T. ) ;
#214 = VERTEX_POINT ( 'NONE', #51 ) ;
#215 = CC_DESIGN_DATE_AND_TIME_ASSIGNMENT ( #77, #218, ( #54 ) ) ;
#216 = CARTESIAN_POINT ( 'NONE',  ( 4.189777606611760026E-14, 2.145000000000003570, 12.00000000000000000 ) ) ;
#217 = CARTESIAN_POINT ( 'NONE',  ( 4.277465241163813963E-14, 1.999999999999990452, 12.25114736709750929 ) ) ;
#218 = DATE_TIME_ROLE ( 'classification_date' ) ;
#219 = CARTESIAN_POINT ( 'NONE',  ( 0.0000000000000000000, 0.0000000000000000000, 0.0000000000000000000 ) ) ;
#220 = COORDINATED_UNIVERSAL_TIME_OFFSET ( 1, 0, .AHEAD. ) ;
#221 = CARTESIAN_POINT ( 'NONE',  ( 4.189777606611760026E-14, -1.469576158976823947E-15, 12.00000000000000000 ) ) ;
#222 = AXIS2_PLACEMENT_3D ( 'NONE', #204, #103, #40 ) ;
#223 = CARTESIAN_POINT ( 'NONE',  ( 0.0000000000000000000, 0.0000000000000000000, 0.0000000000000000000 ) ) ;
#224 = DIRECTION ( 'NONE',  ( 3.491481338843133355E-15, -1.224646799147353207E-16, 1.000000000000000000 ) ) ;
#225 = DESIGN_CONTEXT ( 'detailed design', #3, 'design' ) ;
#226 = CLOSED_SHELL ( 'NONE', ( #208, #162, #211, #119 ) ) ;
#227 = APPROVAL_STATUS ( 'not_yet_approved' ) ;
#228 = LOCAL_TIME ( 13, 56, 7.000000000000000000, #62 ) ;
#229 = DATE_TIME_ROLE ( 'creation_date' ) ;
#230 = CC_DESIGN_PERSON_AND_ORGANIZATION_ASSIGNMENT ( #127, #180, ( #89 ) ) ;
#231 = PERSON_AND_ORGANIZATION ( #24, #143 ) ;
#232 = EDGE_CURVE ( 'NONE', #17, #17, #160, .T. ) ;
#233 = COORDINATED_UNIVERSAL_TIME_OFFSET ( 1, 0, .AHEAD. ) ;
#234 = LOCAL_TIME ( 13, 56, 7.000000000000000000, #179 ) ;
#235 = PLANE ( 'NONE',  #20 ) ;
#236 = APPROVAL ( #227, 'UNSPECIFIED' ) ;
#237 = DIRECTION ( 'NONE',  ( -3.491481338843133355E-15, 1.224646799147353207E-16, -1.000000000000000000 ) ) ;
#238 = VERTEX_POINT ( 'NONE', #146 ) ;
#239 = ORIENTED_EDGE ( 'NONE', *, *, #128, .T. ) ;
#240 = CC_DESIGN_SECURITY_CLASSIFICATION ( #54, ( #89 ) ) ;
#241 = EDGE_LOOP ( 'NONE', ( #52 ) ) ;
#242 = DIRECTION ( 'NONE',  ( -3.491481338843133355E-15, 1.224646799147353207E-16, -1.000000000000000000 ) ) ;
#243 = DIRECTION ( 'NONE',  ( -3.491481338843133355E-15, 1.224646799147353207E-16, -1.000000000000000000 ) ) ;
ENDSEC;
END-ISO-10303-21;
