ISO-10303-21;
HEADER;
FILE_DESCRIPTION (( 'STEP AP203' ),
    '1' );
FILE_NAME ('321654.step',
    '2021-12-02T12:56:06',
    ( '' ),
    ( '' ),
    'SwSTEP 2.0',
    'SolidWorks 2019',
    '' );
FILE_SCHEMA (( 'CONFIG_CONTROL_DESIGN' ));
ENDSEC;

DATA;
#1 = CIRCLE ( 'NONE', #112, 2.000000000000000888 ) ;
#2 = DIRECTION ( 'NONE',  ( -3.491481338843133355E-15, 1.224646799147353207E-16, -1.000000000000000000 ) ) ;
#3 = MANIFOLD_SOLID_BREP ( 'Corps-Déplacer/Copier1[2]', #207 ) ;
#4 = APPLICATION_CONTEXT ( 'configuration controlled 3d designs of mechanical parts and assemblies' ) ;
#5 =( LENGTH_UNIT ( ) NAMED_UNIT ( * ) SI_UNIT ( .MILLI., .METRE. ) );
#6 = DIRECTION ( 'NONE',  ( -3.491481338843133355E-15, 1.224646799147353207E-16, -1.000000000000000000 ) ) ;
#7 = CONICAL_SURFACE ( 'NONE', #102, 1.740000000000003988, 0.7853981633974504994 ) ;
#8 = CC_DESIGN_PERSON_AND_ORGANIZATION_ASSIGNMENT ( #140, #158, ( #130 ) ) ;
#9 = DATE_AND_TIME ( #176, #83 ) ;
#10 = ADVANCED_FACE ( 'NONE', ( #194, #69 ), #148, .T. ) ;
#11 = AXIS2_PLACEMENT_3D ( 'NONE', #57, #6, #156 ) ;
#12 = PERSON_AND_ORGANIZATION ( #153, #210 ) ;
#13 = DATE_AND_TIME ( #48, #189 ) ;
#14 = APPROVAL_DATE_TIME ( #172, #135 ) ;
#15 = CC_DESIGN_SECURITY_CLASSIFICATION ( #233, ( #130 ) ) ;
#16 = DIRECTION ( 'NONE',  ( -3.491481338843133355E-15, 1.224646799147353207E-16, -1.000000000000000000 ) ) ;
#17 = ORIENTED_EDGE ( 'NONE', *, *, #64, .T. ) ;
#18 = DIRECTION ( 'NONE',  ( -3.491481338843133355E-15, 1.224646799147353207E-16, -1.000000000000000000 ) ) ;
#19 = FACE_OUTER_BOUND ( 'NONE', #21, .T. ) ;
#20 = ORIENTED_EDGE ( 'NONE', *, *, #231, .T. ) ;
#21 = EDGE_LOOP ( 'NONE', ( #96 ) ) ;
#22 = CARTESIAN_POINT ( 'NONE',  ( 4.189777606611760026E-14, 1.604742967448189775E-32, 12.00000000000000000 ) ) ;
#23 = AXIS2_PLACEMENT_3D ( 'NONE', #22, #122, #88 ) ;
#24 = CC_DESIGN_DATE_AND_TIME_ASSIGNMENT ( #46, #209, ( #47 ) ) ;
#25 = EDGE_CURVE ( 'NONE', #70, #70, #177, .T. ) ;
#26 = COORDINATED_UNIVERSAL_TIME_OFFSET ( 1, 0, .AHEAD. ) ;
#27 = DATE_AND_TIME ( #80, #212 ) ;
#28 = COORDINATED_UNIVERSAL_TIME_OFFSET ( 1, 0, .AHEAD. ) ;
#29 = COORDINATED_UNIVERSAL_TIME_OFFSET ( 1, 0, .AHEAD. ) ;
#30 = AXIS2_PLACEMENT_3D ( 'NONE', #215, #124, #197 ) ;
#31 = PLANE ( 'NONE',  #30 ) ;
#32 = EDGE_LOOP ( 'NONE', ( #105 ) ) ;
#33 = FACE_OUTER_BOUND ( 'NONE', #198, .T. ) ;
#34 = EDGE_LOOP ( 'NONE', ( #54 ) ) ;
#35 = EDGE_LOOP ( 'NONE', ( #234 ) ) ;
#36 = EDGE_LOOP ( 'NONE', ( #225 ) ) ;
#37 = FACE_OUTER_BOUND ( 'NONE', #180, .T. ) ;
#38 = FACE_OUTER_BOUND ( 'NONE', #138, .T. ) ;
#39 = PERSON_AND_ORGANIZATION ( #153, #210 ) ;
#40 = CC_DESIGN_DATE_AND_TIME_ASSIGNMENT ( #27, #160, ( #233 ) ) ;
#41 = CYLINDRICAL_SURFACE ( 'NONE', #11, 1.999999999999996669 ) ;
#42 = ADVANCED_FACE ( 'NONE', ( #89, #65 ), #7, .T. ) ;
#43 = AXIS2_PLACEMENT_3D ( 'NONE', #214, #104, #103 ) ;
#44 = APPROVAL_STATUS ( 'not_yet_approved' ) ;
#45 = SHAPE_DEFINITION_REPRESENTATION ( #149, #141 ) ;
#46 = DATE_AND_TIME ( #161, #220 ) ;
#47 = PRODUCT_DEFINITION ( 'UNKNOWN', '', #130, #99 ) ;
#48 = CALENDAR_DATE ( 2021, 2, 12 ) ;
#49 = FACE_BOUND ( 'NONE', #36, .T. ) ;
#50 = CONICAL_SURFACE ( 'NONE', #82, 2.140000000000005009, 0.5235987755983000369 ) ;
#51 = FACE_OUTER_BOUND ( 'NONE', #34, .T. ) ;
#52 = DIRECTION ( 'NONE',  ( -3.491481338843133355E-15, 1.224646799147353207E-16, -1.000000000000000000 ) ) ;
#53 = CARTESIAN_POINT ( 'NONE',  ( 4.189777606611760026E-14, -1.469576158976823947E-15, 12.00000000000000000 ) ) ;
#54 = ORIENTED_EDGE ( 'NONE', *, *, #171, .F. ) ;
#55 = DIRECTION ( 'NONE',  ( -3.491481338843133355E-15, 1.224646799147353207E-16, -1.000000000000000000 ) ) ;
#56 = APPROVAL_PERSON_ORGANIZATION ( #100, #126, #192 ) ;
#57 = CARTESIAN_POINT ( 'NONE',  ( 0.0000000000000000000, 0.0000000000000000000, 0.0000000000000000000 ) ) ;
#58 = LOCAL_TIME ( 13, 56, 6.000000000000000000, #121 ) ;
#59 = CARTESIAN_POINT ( 'NONE',  ( 4.189777606611760026E-14, 2.140000000000003677, 12.00000000000000000 ) ) ;
#60 = CIRCLE ( 'NONE', #159, 1.600000000000000977 ) ;
#61 = APPROVAL_DATE_TIME ( #9, #126 ) ;
#62 = EDGE_LOOP ( 'NONE', ( #181 ) ) ;
#63 = EDGE_LOOP ( 'NONE', ( #238 ) ) ;
#64 = EDGE_CURVE ( 'NONE', #114, #114, #1, .T. ) ;
#65 = FACE_BOUND ( 'NONE', #143, .T. ) ;
#66 = APPROVAL_PERSON_ORGANIZATION ( #173, #135, #191 ) ;
#67 = FACE_OUTER_BOUND ( 'NONE', #35, .T. ) ;
#68 = DIRECTION ( 'NONE',  ( -3.491481338843133355E-15, 1.224646799147353207E-16, -1.000000000000000000 ) ) ;
#69 = FACE_OUTER_BOUND ( 'NONE', #62, .T. ) ;
#70 = VERTEX_POINT ( 'NONE', #74 ) ;
#71 = ADVANCED_FACE ( 'NONE', ( #51 ), #31, .F. ) ;
#72 = CARTESIAN_POINT ( 'NONE',  ( 0.0000000000000000000, 0.0000000000000000000, 0.0000000000000000000 ) ) ;
#73 = AXIS2_PLACEMENT_3D ( 'NONE', #185, #2, #188 ) ;
#74 = CARTESIAN_POINT ( 'NONE',  ( 4.274441529627536458E-14, 1.999999999999990452, 12.24248711305966530 ) ) ;
#75 = APPROVAL_DATE_TIME ( #13, #242 ) ;
#76 = AXIS2_PLACEMENT_3D ( 'NONE', #204, #154, #206 ) ;
#77 = PERSON_AND_ORGANIZATION_ROLE ( 'creator' ) ;
#78 = MANIFOLD_SOLID_BREP ( 'Corps-Déplacer/Copier1[1]', #123 ) ;
#79 = CC_DESIGN_PERSON_AND_ORGANIZATION_ASSIGNMENT ( #39, #211, ( #199 ) ) ;
#80 = CALENDAR_DATE ( 2021, 2, 12 ) ;
#81 = PERSON_AND_ORGANIZATION ( #153, #210 ) ;
#82 = AXIS2_PLACEMENT_3D ( 'NONE', #128, #52, #125 ) ;
#83 = LOCAL_TIME ( 13, 56, 6.000000000000000000, #29 ) ;
#84 = DIRECTION ( 'NONE',  ( -3.491481338843133355E-15, 1.224646799147353207E-16, -1.000000000000000000 ) ) ;
#85 = EDGE_LOOP ( 'NONE', ( #217 ) ) ;
#86 = DIRECTION ( 'NONE',  ( 0.0000000000000000000, 1.000000000000000000, 0.0000000000000000000 ) ) ;
#87 = AXIS2_PLACEMENT_3D ( 'NONE', #240, #18, #86 ) ;
#88 = DIRECTION ( 'NONE',  ( -4.275831445896958607E-31, -1.000000000000000000, -1.224646799147353207E-16 ) ) ;
#89 = FACE_OUTER_BOUND ( 'NONE', #63, .T. ) ;
#90 = CC_DESIGN_PERSON_AND_ORGANIZATION_ASSIGNMENT ( #98, #137, ( #47 ) ) ;
#91 = CARTESIAN_POINT ( 'NONE',  ( 2.793185071074506684E-13, -9.797174393178826052E-15, 80.00000000000000000 ) ) ;
#92 = CC_DESIGN_APPROVAL ( #242, ( #233 ) ) ;
#93 = CARTESIAN_POINT ( 'NONE',  ( 2.779219145719134403E-13, 1.999999999999991340, 79.60000000000000853 ) ) ;
#94 = MECHANICAL_CONTEXT ( 'NONE', #230, 'mechanical' ) ;
#95 = ADVANCED_FACE ( 'NONE', ( #67 ), #129, .T. ) ;
#96 = ORIENTED_EDGE ( 'NONE', *, *, #157, .T. ) ;
#97 = CIRCLE ( 'NONE', #76, 1.740000000000003988 ) ;
#98 = PERSON_AND_ORGANIZATION ( #153, #210 ) ;
#99 = DESIGN_CONTEXT ( 'detailed design', #4, 'design' ) ;
#100 = PERSON_AND_ORGANIZATION ( #153, #210 ) ;
#101 = SECURITY_CLASSIFICATION_LEVEL ( 'unclassified' ) ;
#102 = AXIS2_PLACEMENT_3D ( 'NONE', #144, #163, #166 ) ;
#103 = DIRECTION ( 'NONE',  ( 4.275831445896958607E-31, 1.000000000000000000, 1.224646799147353207E-16 ) ) ;
#104 = DIRECTION ( 'NONE',  ( -3.491481338843133355E-15, 1.224646799147353207E-16, -1.000000000000000000 ) ) ;
#105 = ORIENTED_EDGE ( 'NONE', *, *, #145, .T. ) ;
#106 = CARTESIAN_POINT ( 'NONE',  ( 2.779219145719134403E-13, -9.748188521212932624E-15, 79.60000000000000853 ) ) ;
#107 = CC_DESIGN_APPROVAL ( #135, ( #47 ) ) ;
#108 = DIRECTION ( 'NONE',  ( 0.0000000000000000000, 1.000000000000000000, 0.0000000000000000000 ) ) ;
#109 = PLANE ( 'NONE',  #73 ) ;
#110 = ADVANCED_FACE ( 'NONE', ( #33, #49 ), #239, .T. ) ;
#111 = CARTESIAN_POINT ( 'NONE',  ( 1.396592535537253342E-15, 2.140000000000005453, 0.3999999999999999667 ) ) ;
#112 = AXIS2_PLACEMENT_3D ( 'NONE', #106, #165, #243 ) ;
#113 = VERTEX_POINT ( 'NONE', #131 ) ;
#114 = VERTEX_POINT ( 'NONE', #93 ) ;
#115 = CARTESIAN_POINT ( 'NONE',  ( 4.189777606611760026E-14, 2.140000000000003677, 12.00000000000000000 ) ) ;
#116 =( GEOMETRIC_REPRESENTATION_CONTEXT ( 3 ) GLOBAL_UNCERTAINTY_ASSIGNED_CONTEXT ( ( #169 ) ) GLOBAL_UNIT_ASSIGNED_CONTEXT ( ( #5, #186, #132 ) ) REPRESENTATION_CONTEXT ( 'NONE', 'WORKASPACE' ) );
#117 = PERSON_AND_ORGANIZATION ( #153, #210 ) ;
#118 = ADVANCED_FACE ( 'NONE', ( #216, #218 ), #50, .T. ) ;
#119 = APPLICATION_PROTOCOL_DEFINITION ( 'international standard', 'config_control_design', 1994, #4 ) ;
#120 = AXIS2_PLACEMENT_3D ( 'NONE', #182, #237, #151 ) ;
#121 = COORDINATED_UNIVERSAL_TIME_OFFSET ( 1, 0, .AHEAD. ) ;
#122 = DIRECTION ( 'NONE',  ( 3.491481338843133355E-15, -1.224646799147353207E-16, 1.000000000000000000 ) ) ;
#123 = CLOSED_SHELL ( 'NONE', ( #162, #118, #222, #110, #71 ) ) ;
#124 = DIRECTION ( 'NONE',  ( -3.491481338843133355E-15, 1.224646799147353207E-16, -1.000000000000000000 ) ) ;
#125 = DIRECTION ( 'NONE',  ( 0.0000000000000000000, 1.000000000000000000, 0.0000000000000000000 ) ) ;
#126 = APPROVAL ( #44, 'UNSPECIFIED' ) ;
#127 = EDGE_LOOP ( 'NONE', ( #201 ) ) ;
#128 = CARTESIAN_POINT ( 'NONE',  ( 4.189777606611760026E-14, -1.469576158976823947E-15, 12.00000000000000000 ) ) ;
#129 = PLANE ( 'NONE',  #120 ) ;
#130 = PRODUCT_DEFINITION_FORMATION_WITH_SPECIFIED_SOURCE ( 'ANY', '', #199, .NOT_KNOWN. ) ;
#131 = CARTESIAN_POINT ( 'NONE',  ( 2.793185071074506684E-13, 1.599999999999991207, 80.00000000000000000 ) ) ;
#132 =( NAMED_UNIT ( * ) SI_UNIT ( $, .STERADIAN. ) SOLID_ANGLE_UNIT ( ) );
#133 = VERTEX_POINT ( 'NONE', #111 ) ;
#134 = VERTEX_POINT ( 'NONE', #208 ) ;
#135 = APPROVAL ( #174, 'UNSPECIFIED' ) ;
#136 = AXIS2_PLACEMENT_3D ( 'NONE', #179, #16, #200 ) ;
#137 = PERSON_AND_ORGANIZATION_ROLE ( 'creator' ) ;
#138 = EDGE_LOOP ( 'NONE', ( #17 ) ) ;
#139 = CC_DESIGN_APPROVAL ( #126, ( #130 ) ) ;
#140 = PERSON_AND_ORGANIZATION ( #153, #210 ) ;
#141 = ADVANCED_BREP_SHAPE_REPRESENTATION ( '321654', ( #78, #3, #164 ), #116 ) ;
#142 = ORIENTED_EDGE ( 'NONE', *, *, #25, .F. ) ;
#143 = EDGE_LOOP ( 'NONE', ( #195 ) ) ;
#144 = CARTESIAN_POINT ( 'NONE',  ( -7.439946715860724336E-31, 2.609582021831638149E-32, -2.130885430516399230E-16 ) ) ;
#145 = EDGE_CURVE ( 'NONE', #226, #226, #155, .T. ) ;
#146 = AXIS2_PLACEMENT_3D ( 'NONE', #184, #55, #203 ) ;
#147 = CARTESIAN_POINT ( 'NONE',  ( 2.793185071074506684E-13, -9.797174393178826052E-15, 80.00000000000000000 ) ) ;
#148 = CYLINDRICAL_SURFACE ( 'NONE', #43, 2.140000000000005453 ) ;
#149 = PRODUCT_DEFINITION_SHAPE ( 'NONE', 'NONE',  #47 ) ;
#150 = EDGE_LOOP ( 'NONE', ( #142 ) ) ;
#151 = DIRECTION ( 'NONE',  ( -4.275831445896958607E-31, -1.000000000000000000, -1.224646799147353207E-16 ) ) ;
#152 = DIRECTION ( 'NONE',  ( 0.0000000000000000000, 0.0000000000000000000, 1.000000000000000000 ) ) ;
#153 = PERSON ( 'UNSPECIFIED', 'UNSPECIFIED', 'UNSPECIFIED', ('UNSPECIFIED'), ('UNSPECIFIED'), ('UNSPECIFIED') ) ;
#154 = DIRECTION ( 'NONE',  ( -3.491481338843133355E-15, 1.224646799147353207E-16, -1.000000000000000000 ) ) ;
#155 = CIRCLE ( 'NONE', #183, 2.140000000000005009 ) ;
#156 = DIRECTION ( 'NONE',  ( 4.275831445896958607E-31, 1.000000000000000000, 1.224646799147353207E-16 ) ) ;
#157 = EDGE_CURVE ( 'NONE', #187, #187, #229, .T. ) ;
#158 = PERSON_AND_ORGANIZATION_ROLE ( 'design_supplier' ) ;
#159 = AXIS2_PLACEMENT_3D ( 'NONE', #91, #167, #241 ) ;
#160 = DATE_TIME_ROLE ( 'classification_date' ) ;
#161 = CALENDAR_DATE ( 2021, 2, 12 ) ;
#162 = ADVANCED_FACE ( 'NONE', ( #19 ), #221, .F. ) ;
#163 = DIRECTION ( 'NONE',  ( 3.491481338843133355E-15, -1.224646799147353207E-16, 1.000000000000000000 ) ) ;
#164 = AXIS2_PLACEMENT_3D ( 'NONE', #72, #152, #223 ) ;
#165 = DIRECTION ( 'NONE',  ( -3.491481338843133355E-15, 1.224646799147353207E-16, -1.000000000000000000 ) ) ;
#166 = DIRECTION ( 'NONE',  ( -4.275831445896958607E-31, -1.000000000000000000, -1.224646799147352961E-16 ) ) ;
#167 = DIRECTION ( 'NONE',  ( -3.491481338843133355E-15, 1.224646799147353207E-16, -1.000000000000000000 ) ) ;
#168 = AXIS2_PLACEMENT_3D ( 'NONE', #147, #68, #202 ) ;
#169 = UNCERTAINTY_MEASURE_WITH_UNIT (LENGTH_MEASURE( 1.000000000000000082E-05 ), #5, 'distance_accuracy_value', 'NONE');
#170 = FACE_OUTER_BOUND ( 'NONE', #150, .T. ) ;
#171 = EDGE_CURVE ( 'NONE', #113, #113, #60, .T. ) ;
#172 = DATE_AND_TIME ( #228, #58 ) ;
#173 = PERSON_AND_ORGANIZATION ( #153, #210 ) ;
#174 = APPROVAL_STATUS ( 'not_yet_approved' ) ;
#175 = CC_DESIGN_PERSON_AND_ORGANIZATION_ASSIGNMENT ( #117, #232, ( #233 ) ) ;
#176 = CALENDAR_DATE ( 2021, 2, 12 ) ;
#177 = CIRCLE ( 'NONE', #87, 1.999999999999991784 ) ;
#178 = EDGE_CURVE ( 'NONE', #133, #133, #193, .T. ) ;
#179 = CARTESIAN_POINT ( 'NONE',  ( 4.189777606611760026E-14, -1.469576158976823947E-15, 12.00000000000000000 ) ) ;
#180 = EDGE_LOOP ( 'NONE', ( #20 ) ) ;
#181 = ORIENTED_EDGE ( 'NONE', *, *, #178, .F. ) ;
#182 = CARTESIAN_POINT ( 'NONE',  ( 4.189777606611760026E-14, 1.604742967448189775E-32, 12.00000000000000000 ) ) ;
#183 = AXIS2_PLACEMENT_3D ( 'NONE', #53, #84, #108 ) ;
#184 = CARTESIAN_POINT ( 'NONE',  ( 1.396592535537252356E-15, -4.898587196589408761E-17, 0.3999999999999996891 ) ) ;
#185 = CARTESIAN_POINT ( 'NONE',  ( -3.719973357930362168E-31, 1.304791010915819075E-32, -1.065442715258199615E-16 ) ) ;
#186 =( NAMED_UNIT ( * ) PLANE_ANGLE_UNIT ( ) SI_UNIT ( $, .RADIAN. ) );
#187 = VERTEX_POINT ( 'NONE', #59 ) ;
#188 = DIRECTION ( 'NONE',  ( 4.275831445896958607E-31, 1.000000000000000000, 1.224646799147353207E-16 ) ) ;
#189 = LOCAL_TIME ( 13, 56, 6.000000000000000000, #26 ) ;
#190 = APPROVAL_ROLE ( '' ) ;
#191 = APPROVAL_ROLE ( '' ) ;
#192 = APPROVAL_ROLE ( '' ) ;
#193 = CIRCLE ( 'NONE', #146, 2.140000000000005453 ) ;
#194 = FACE_OUTER_BOUND ( 'NONE', #32, .T. ) ;
#195 = ORIENTED_EDGE ( 'NONE', *, *, #231, .F. ) ;
#196 = APPROVAL_PERSON_ORGANIZATION ( #81, #242, #190 ) ;
#197 = DIRECTION ( 'NONE',  ( 4.275831445896958607E-31, 1.000000000000000000, 1.224646799147353207E-16 ) ) ;
#198 = EDGE_LOOP ( 'NONE', ( #236 ) ) ;
#199 = PRODUCT ( '321654', '321654', '', ( #94 ) ) ;
#200 = DIRECTION ( 'NONE',  ( 0.0000000000000000000, 1.000000000000000000, 0.0000000000000000000 ) ) ;
#201 = ORIENTED_EDGE ( 'NONE', *, *, #157, .F. ) ;
#202 = DIRECTION ( 'NONE',  ( 0.0000000000000000000, 1.000000000000000000, 0.0000000000000000000 ) ) ;
#203 = DIRECTION ( 'NONE',  ( 4.499836318661754815E-31, 1.000000000000000000, 1.266591322997081467E-16 ) ) ;
#204 = CARTESIAN_POINT ( 'NONE',  ( -7.439946715860724336E-31, 2.609582021831638149E-32, -2.130885430516399230E-16 ) ) ;
#205 = ADVANCED_FACE ( 'NONE', ( #37 ), #109, .T. ) ;
#206 = DIRECTION ( 'NONE',  ( 4.275831445896958607E-31, 1.000000000000000000, 1.224646799147352961E-16 ) ) ;
#207 = CLOSED_SHELL ( 'NONE', ( #10, #95, #205, #42 ) ) ;
#208 = CARTESIAN_POINT ( 'NONE',  ( 0.0000000000000000000, 1.740000000000003988, 0.0000000000000000000 ) ) ;
#209 = DATE_TIME_ROLE ( 'creation_date' ) ;
#210 = ORGANIZATION ( 'UNSPECIFIED', 'UNSPECIFIED', '' ) ;
#211 = PERSON_AND_ORGANIZATION_ROLE ( 'design_owner' ) ;
#212 = LOCAL_TIME ( 13, 56, 6.000000000000000000, #235 ) ;
#213 = APPROVAL_STATUS ( 'not_yet_approved' ) ;
#214 = CARTESIAN_POINT ( 'NONE',  ( 0.0000000000000000000, 0.0000000000000000000, 0.0000000000000000000 ) ) ;
#215 = CARTESIAN_POINT ( 'NONE',  ( 2.793185071074506684E-13, 1.199807826129472128E-32, 80.00000000000000000 ) ) ;
#216 = FACE_BOUND ( 'NONE', #85, .T. ) ;
#217 = ORIENTED_EDGE ( 'NONE', *, *, #25, .T. ) ;
#218 = FACE_OUTER_BOUND ( 'NONE', #127, .T. ) ;
#219 = CC_DESIGN_PERSON_AND_ORGANIZATION_ASSIGNMENT ( #12, #77, ( #130 ) ) ;
#220 = LOCAL_TIME ( 13, 56, 6.000000000000000000, #28 ) ;
#221 = PLANE ( 'NONE',  #23 ) ;
#222 = ADVANCED_FACE ( 'NONE', ( #170, #38 ), #41, .T. ) ;
#223 = DIRECTION ( 'NONE',  ( 1.000000000000000000, 0.0000000000000000000, 0.0000000000000000000 ) ) ;
#224 = APPLICATION_PROTOCOL_DEFINITION ( 'international standard', 'config_control_design', 1994, #230 ) ;
#225 = ORIENTED_EDGE ( 'NONE', *, *, #171, .T. ) ;
#226 = VERTEX_POINT ( 'NONE', #115 ) ;
#227 = PRODUCT_RELATED_PRODUCT_CATEGORY ( 'detail', '', ( #199 ) ) ;
#228 = CALENDAR_DATE ( 2021, 2, 12 ) ;
#229 = CIRCLE ( 'NONE', #136, 2.140000000000005009 ) ;
#230 = APPLICATION_CONTEXT ( 'configuration controlled 3d designs of mechanical parts and assemblies' ) ;
#231 = EDGE_CURVE ( 'NONE', #134, #134, #97, .T. ) ;
#232 = PERSON_AND_ORGANIZATION_ROLE ( 'classification_officer' ) ;
#233 = SECURITY_CLASSIFICATION ( '', '', #101 ) ;
#234 = ORIENTED_EDGE ( 'NONE', *, *, #145, .F. ) ;
#235 = COORDINATED_UNIVERSAL_TIME_OFFSET ( 1, 0, .AHEAD. ) ;
#236 = ORIENTED_EDGE ( 'NONE', *, *, #64, .F. ) ;
#237 = DIRECTION ( 'NONE',  ( 3.491481338843133355E-15, -1.224646799147353207E-16, 1.000000000000000000 ) ) ;
#238 = ORIENTED_EDGE ( 'NONE', *, *, #178, .T. ) ;
#239 = CONICAL_SURFACE ( 'NONE', #168, 1.600000000000000977, 0.7853981633974512766 ) ;
#240 = CARTESIAN_POINT ( 'NONE',  ( 4.274441529627536458E-14, -1.499272265661124002E-15, 12.24248711305966530 ) ) ;
#241 = DIRECTION ( 'NONE',  ( 0.0000000000000000000, 1.000000000000000000, 0.0000000000000000000 ) ) ;
#242 = APPROVAL ( #213, 'UNSPECIFIED' ) ;
#243 = DIRECTION ( 'NONE',  ( 0.0000000000000000000, 1.000000000000000000, 0.0000000000000000000 ) ) ;
ENDSEC;
END-ISO-10303-21;
