ISO-10303-21;
HEADER;
FILE_DESCRIPTION (( 'STEP AP203' ),
    '1' );
FILE_NAME ('321653.step',
    '2021-12-02T12:56:05',
    ( '' ),
    ( '' ),
    'SwSTEP 2.0',
    'SolidWorks 2019',
    '' );
FILE_SCHEMA (( 'CONFIG_CONTROL_DESIGN' ));
ENDSEC;

DATA;
#1 = CARTESIAN_POINT ( 'NONE',  ( 4.189777606611760026E-14, -1.469576158976823947E-15, 12.00000000000000000 ) ) ;
#2 = VERTEX_POINT ( 'NONE', #165 ) ;
#3 = AXIS2_PLACEMENT_3D ( 'NONE', #72, #186, #58 ) ;
#4 = AXIS2_PLACEMENT_3D ( 'NONE', #29, #160, #142 ) ;
#5 = EDGE_LOOP ( 'NONE', ( #134 ) ) ;
#6 = APPROVAL_STATUS ( 'not_yet_approved' ) ;
#7 = APPROVAL_STATUS ( 'not_yet_approved' ) ;
#8 = PERSON_AND_ORGANIZATION ( #46, #170 ) ;
#9 = APPROVAL_PERSON_ORGANIZATION ( #8, #16, #47 ) ;
#10 = CLOSED_SHELL ( 'NONE', ( #67, #231, #11, #100 ) ) ;
#11 = ADVANCED_FACE ( 'NONE', ( #97 ), #239, .T. ) ;
#12 = DESIGN_CONTEXT ( 'detailed design', #71, 'design' ) ;
#13 = CARTESIAN_POINT ( 'NONE',  ( 0.0000000000000000000, 0.0000000000000000000, 0.0000000000000000000 ) ) ;
#14 = MANIFOLD_SOLID_BREP ( 'Corps-Déplacer/Copier1[1]', #68 ) ;
#15 = AXIS2_PLACEMENT_3D ( 'NONE', #219, #77, #208 ) ;
#16 = APPROVAL ( #140, 'UNSPECIFIED' ) ;
#17 = FACE_OUTER_BOUND ( 'NONE', #63, .T. ) ;
#18 = EDGE_LOOP ( 'NONE', ( #59 ) ) ;
#19 = DIRECTION ( 'NONE',  ( 0.0000000000000000000, 1.000000000000000000, 0.0000000000000000000 ) ) ;
#20 = DIRECTION ( 'NONE',  ( 0.0000000000000000000, 1.000000000000000000, 0.0000000000000000000 ) ) ;
#21 = DIRECTION ( 'NONE',  ( 0.0000000000000000000, 1.000000000000000000, 0.0000000000000000000 ) ) ;
#22 = CARTESIAN_POINT ( 'NONE',  ( 4.189777606611760026E-14, -1.469576158976823947E-15, 12.00000000000000000 ) ) ;
#23 = EDGE_LOOP ( 'NONE', ( #41 ) ) ;
#24 = DIRECTION ( 'NONE',  ( 0.0000000000000000000, 1.000000000000000000, 0.0000000000000000000 ) ) ;
#25 = EDGE_LOOP ( 'NONE', ( #83 ) ) ;
#26 = APPLICATION_PROTOCOL_DEFINITION ( 'international standard', 'config_control_design', 1994, #81 ) ;
#27 = EDGE_CURVE ( 'NONE', #2, #2, #217, .T. ) ;
#28 = CARTESIAN_POINT ( 'NONE',  ( 1.396592535537252750E-15, -4.898587196589410610E-17, 0.3999999999999998002 ) ) ;
#29 = CARTESIAN_POINT ( 'NONE',  ( -7.418567558631238746E-31, 2.602083222918328807E-32, -2.124762196520662354E-16 ) ) ;
#30 =( GEOMETRIC_REPRESENTATION_CONTEXT ( 3 ) GLOBAL_UNCERTAINTY_ASSIGNED_CONTEXT ( ( #108 ) ) GLOBAL_UNIT_ASSIGNED_CONTEXT ( ( #161, #122, #230 ) ) REPRESENTATION_CONTEXT ( 'NONE', 'WORKASPACE' ) );
#31 = APPROVAL_DATE_TIME ( #158, #125 ) ;
#32 = DIRECTION ( 'NONE',  ( -4.275831445896958607E-31, -1.000000000000000000, -1.224646799147353207E-16 ) ) ;
#33 = APPROVAL_ROLE ( '' ) ;
#34 = CC_DESIGN_SECURITY_CLASSIFICATION ( #145, ( #177 ) ) ;
#35 = CIRCLE ( 'NONE', #150, 2.135000000000005116 ) ;
#36 = CARTESIAN_POINT ( 'NONE',  ( 4.271417818091258954E-14, 1.999999999999990452, 12.23382685902181954 ) ) ;
#37 = EDGE_LOOP ( 'NONE', ( #73 ) ) ;
#38 = APPROVAL_PERSON_ORGANIZATION ( #175, #76, #33 ) ;
#39 = CARTESIAN_POINT ( 'NONE',  ( 4.189777606611760026E-14, 1.600993567991534830E-32, 12.00000000000000000 ) ) ;
#40 = DIRECTION ( 'NONE',  ( -3.491481338843133355E-15, 1.224646799147353207E-16, -1.000000000000000000 ) ) ;
#41 = ORIENTED_EDGE ( 'NONE', *, *, #53, .T. ) ;
#42 = DIRECTION ( 'NONE',  ( -3.491481338843133355E-15, 1.224646799147353207E-16, -1.000000000000000000 ) ) ;
#43 = CALENDAR_DATE ( 2021, 2, 12 ) ;
#44 = EDGE_CURVE ( 'NONE', #79, #79, #86, .T. ) ;
#45 = CYLINDRICAL_SURFACE ( 'NONE', #198, 1.999999999999996669 ) ;
#46 = PERSON ( 'UNSPECIFIED', 'UNSPECIFIED', 'UNSPECIFIED', ('UNSPECIFIED'), ('UNSPECIFIED'), ('UNSPECIFIED') ) ;
#47 = APPROVAL_ROLE ( '' ) ;
#48 = DIRECTION ( 'NONE',  ( 3.491481338843133355E-15, -1.224646799147353207E-16, 1.000000000000000000 ) ) ;
#49 = CALENDAR_DATE ( 2021, 2, 12 ) ;
#50 = PERSON_AND_ORGANIZATION ( #46, #170 ) ;
#51 = AXIS2_PLACEMENT_3D ( 'NONE', #117, #60, #135 ) ;
#52 = SHAPE_DEFINITION_REPRESENTATION ( #54, #176 ) ;
#53 = EDGE_CURVE ( 'NONE', #240, #240, #106, .T. ) ;
#54 = PRODUCT_DEFINITION_SHAPE ( 'NONE', 'NONE',  #162 ) ;
#55 = VERTEX_POINT ( 'NONE', #129 ) ;
#56 = CIRCLE ( 'NONE', #4, 1.735000000000003650 ) ;
#57 = DIRECTION ( 'NONE',  ( -3.491481338843133355E-15, 1.224646799147353207E-16, -1.000000000000000000 ) ) ;
#58 = DIRECTION ( 'NONE',  ( 4.275831445896958607E-31, 1.000000000000000000, 1.224646799147353207E-16 ) ) ;
#59 = ORIENTED_EDGE ( 'NONE', *, *, #27, .F. ) ;
#60 = DIRECTION ( 'NONE',  ( 3.491481338843133355E-15, -1.224646799147353207E-16, 1.000000000000000000 ) ) ;
#61 = AXIS2_PLACEMENT_3D ( 'NONE', #221, #57, #171 ) ;
#62 = FACE_OUTER_BOUND ( 'NONE', #241, .T. ) ;
#63 = EDGE_LOOP ( 'NONE', ( #189 ) ) ;
#64 = PERSON_AND_ORGANIZATION ( #46, #170 ) ;
#65 = DATE_TIME_ROLE ( 'classification_date' ) ;
#66 = DIRECTION ( 'NONE',  ( 1.000000000000000000, 0.0000000000000000000, 0.0000000000000000000 ) ) ;
#67 = ADVANCED_FACE ( 'NONE', ( #62, #80 ), #167, .T. ) ;
#68 = CLOSED_SHELL ( 'NONE', ( #197, #201, #112, #207, #180 ) ) ;
#69 = CONICAL_SURFACE ( 'NONE', #15, 1.600000000000000977, 0.7853981633974512766 ) ;
#70 = CC_DESIGN_PERSON_AND_ORGANIZATION_ASSIGNMENT ( #139, #173, ( #177 ) ) ;
#71 = APPLICATION_CONTEXT ( 'configuration controlled 3d designs of mechanical parts and assemblies' ) ;
#72 = CARTESIAN_POINT ( 'NONE',  ( 2.793185071074506684E-13, 1.199807826129472128E-32, 80.00000000000000000 ) ) ;
#73 = ORIENTED_EDGE ( 'NONE', *, *, #119, .T. ) ;
#74 = DIRECTION ( 'NONE',  ( 0.0000000000000000000, 1.000000000000000000, 0.0000000000000000000 ) ) ;
#75 = ORIENTED_EDGE ( 'NONE', *, *, #213, .T. ) ;
#76 = APPROVAL ( #7, 'UNSPECIFIED' ) ;
#77 = DIRECTION ( 'NONE',  ( -3.491481338843133355E-15, 1.224646799147353207E-16, -1.000000000000000000 ) ) ;
#78 = CARTESIAN_POINT ( 'NONE',  ( 4.189777606611760026E-14, -1.469576158976823947E-15, 12.00000000000000000 ) ) ;
#79 = VERTEX_POINT ( 'NONE', #172 ) ;
#80 = FACE_OUTER_BOUND ( 'NONE', #182, .T. ) ;
#81 = APPLICATION_CONTEXT ( 'configuration controlled 3d designs of mechanical parts and assemblies' ) ;
#82 = AXIS2_PLACEMENT_3D ( 'NONE', #242, #169, #19 ) ;
#83 = ORIENTED_EDGE ( 'NONE', *, *, #44, .F. ) ;
#84 = APPROVAL_ROLE ( '' ) ;
#85 = CALENDAR_DATE ( 2021, 2, 12 ) ;
#86 = CIRCLE ( 'NONE', #204, 2.135000000000005116 ) ;
#87 = DIRECTION ( 'NONE',  ( 0.0000000000000000000, 0.0000000000000000000, 1.000000000000000000 ) ) ;
#88 = PERSON_AND_ORGANIZATION_ROLE ( 'creator' ) ;
#89 = DIRECTION ( 'NONE',  ( 4.275831445896958607E-31, 1.000000000000000000, 1.224646799147353207E-16 ) ) ;
#90 = PRODUCT ( '321653', '321653', '', ( #232 ) ) ;
#91 = CIRCLE ( 'NONE', #147, 1.600000000000000977 ) ;
#92 = CONICAL_SURFACE ( 'NONE', #113, 1.735000000000003650, 0.7853981633974498333 ) ;
#93 = CC_DESIGN_APPROVAL ( #16, ( #145 ) ) ;
#94 = DIRECTION ( 'NONE',  ( -3.491481338843133355E-15, 1.224646799147353207E-16, -1.000000000000000000 ) ) ;
#95 = EDGE_LOOP ( 'NONE', ( #138 ) ) ;
#96 = CARTESIAN_POINT ( 'NONE',  ( 2.793185071074506684E-13, -9.797174393178826052E-15, 80.00000000000000000 ) ) ;
#97 = FACE_OUTER_BOUND ( 'NONE', #5, .T. ) ;
#98 = EDGE_LOOP ( 'NONE', ( #166 ) ) ;
#99 = FACE_OUTER_BOUND ( 'NONE', #18, .T. ) ;
#100 = ADVANCED_FACE ( 'NONE', ( #195, #211 ), #92, .T. ) ;
#101 = EDGE_LOOP ( 'NONE', ( #152 ) ) ;
#102 = PERSON_AND_ORGANIZATION_ROLE ( 'creator' ) ;
#103 = COORDINATED_UNIVERSAL_TIME_OFFSET ( 1, 0, .AHEAD. ) ;
#104 = EDGE_CURVE ( 'NONE', #223, #223, #56, .T. ) ;
#105 = APPLICATION_PROTOCOL_DEFINITION ( 'international standard', 'config_control_design', 1994, #71 ) ;
#106 = CIRCLE ( 'NONE', #236, 2.135000000000005116 ) ;
#107 = COORDINATED_UNIVERSAL_TIME_OFFSET ( 1, 0, .AHEAD. ) ;
#108 = UNCERTAINTY_MEASURE_WITH_UNIT (LENGTH_MEASURE( 1.000000000000000082E-05 ), #161, 'distance_accuracy_value', 'NONE');
#109 = FACE_OUTER_BOUND ( 'NONE', #120, .T. ) ;
#110 = DATE_TIME_ROLE ( 'creation_date' ) ;
#111 = CC_DESIGN_DATE_AND_TIME_ASSIGNMENT ( #157, #65, ( #145 ) ) ;
#112 = ADVANCED_FACE ( 'NONE', ( #109, #179 ), #45, .T. ) ;
#113 = AXIS2_PLACEMENT_3D ( 'NONE', #210, #48, #32 ) ;
#114 = FACE_BOUND ( 'NONE', #101, .T. ) ;
#115 = CC_DESIGN_APPROVAL ( #76, ( #162 ) ) ;
#116 = EDGE_LOOP ( 'NONE', ( #75 ) ) ;
#117 = CARTESIAN_POINT ( 'NONE',  ( 4.189777606611760026E-14, 1.600993567991534830E-32, 12.00000000000000000 ) ) ;
#118 = AXIS2_PLACEMENT_3D ( 'NONE', #144, #87, #66 ) ;
#119 = EDGE_CURVE ( 'NONE', #153, #153, #35, .T. ) ;
#120 = EDGE_LOOP ( 'NONE', ( #185 ) ) ;
#121 = PLANE ( 'NONE',  #181 ) ;
#122 =( NAMED_UNIT ( * ) PLANE_ANGLE_UNIT ( ) SI_UNIT ( $, .RADIAN. ) );
#123 = DIRECTION ( 'NONE',  ( -3.491481338843133355E-15, 1.224646799147353207E-16, -1.000000000000000000 ) ) ;
#124 = COORDINATED_UNIVERSAL_TIME_OFFSET ( 1, 0, .AHEAD. ) ;
#125 = APPROVAL ( #6, 'UNSPECIFIED' ) ;
#126 = LOCAL_TIME ( 13, 56, 5.000000000000000000, #103 ) ;
#127 = DATE_AND_TIME ( #49, #215 ) ;
#128 = LOCAL_TIME ( 13, 56, 5.000000000000000000, #124 ) ;
#129 = CARTESIAN_POINT ( 'NONE',  ( 2.793185071074506684E-13, 1.599999999999991207, 80.00000000000000000 ) ) ;
#130 = ORIENTED_EDGE ( 'NONE', *, *, #44, .T. ) ;
#131 = DIRECTION ( 'NONE',  ( -3.491481338843133355E-15, 1.224646799147353207E-16, -1.000000000000000000 ) ) ;
#132 = FACE_OUTER_BOUND ( 'NONE', #98, .T. ) ;
#133 = LOCAL_TIME ( 13, 56, 5.000000000000000000, #178 ) ;
#134 = ORIENTED_EDGE ( 'NONE', *, *, #104, .T. ) ;
#135 = DIRECTION ( 'NONE',  ( -4.275831445896958607E-31, -1.000000000000000000, -1.224646799147353207E-16 ) ) ;
#136 = AXIS2_PLACEMENT_3D ( 'NONE', #22, #94, #74 ) ;
#137 = FACE_BOUND ( 'NONE', #116, .T. ) ;
#138 = ORIENTED_EDGE ( 'NONE', *, *, #27, .T. ) ;
#139 = PERSON_AND_ORGANIZATION ( #46, #170 ) ;
#140 = APPROVAL_STATUS ( 'not_yet_approved' ) ;
#141 = PERSON_AND_ORGANIZATION_ROLE ( 'classification_officer' ) ;
#142 = DIRECTION ( 'NONE',  ( 4.275831445896958607E-31, 1.000000000000000000, 1.224646799147353207E-16 ) ) ;
#143 = APPROVAL_DATE_TIME ( #127, #76 ) ;
#144 = CARTESIAN_POINT ( 'NONE',  ( 0.0000000000000000000, 0.0000000000000000000, 0.0000000000000000000 ) ) ;
#145 = SECURITY_CLASSIFICATION ( '', '', #209 ) ;
#146 = CIRCLE ( 'NONE', #82, 1.999999999999991784 ) ;
#147 = AXIS2_PLACEMENT_3D ( 'NONE', #96, #42, #24 ) ;
#148 = CC_DESIGN_PERSON_AND_ORGANIZATION_ASSIGNMENT ( #64, #102, ( #177 ) ) ;
#149 = DIRECTION ( 'NONE',  ( -4.275831445896958607E-31, -1.000000000000000000, -1.224646799147353207E-16 ) ) ;
#150 = AXIS2_PLACEMENT_3D ( 'NONE', #28, #164, #233 ) ;
#151 = CARTESIAN_POINT ( 'NONE',  ( 0.0000000000000000000, 1.735000000000003650, 0.0000000000000000000 ) ) ;
#152 = ORIENTED_EDGE ( 'NONE', *, *, #243, .T. ) ;
#153 = VERTEX_POINT ( 'NONE', #184 ) ;
#154 = CONICAL_SURFACE ( 'NONE', #136, 2.135000000000005116, 0.5235987755983008141 ) ;
#155 = CARTESIAN_POINT ( 'NONE',  ( 0.0000000000000000000, 0.0000000000000000000, 0.0000000000000000000 ) ) ;
#156 = DIRECTION ( 'NONE',  ( 0.0000000000000000000, 1.000000000000000000, 0.0000000000000000000 ) ) ;
#157 = DATE_AND_TIME ( #43, #126 ) ;
#158 = DATE_AND_TIME ( #85, #159 ) ;
#159 = LOCAL_TIME ( 13, 56, 5.000000000000000000, #227 ) ;
#160 = DIRECTION ( 'NONE',  ( -3.491481338843133355E-15, 1.224646799147353207E-16, -1.000000000000000000 ) ) ;
#161 =( LENGTH_UNIT ( ) NAMED_UNIT ( * ) SI_UNIT ( .MILLI., .METRE. ) );
#162 = PRODUCT_DEFINITION ( 'UNKNOWN', '', #177, #12 ) ;
#163 = CALENDAR_DATE ( 2021, 2, 12 ) ;
#164 = DIRECTION ( 'NONE',  ( -3.491481338843133355E-15, 1.224646799147353207E-16, -1.000000000000000000 ) ) ;
#165 = CARTESIAN_POINT ( 'NONE',  ( 2.779219145719134403E-13, 1.999999999999991340, 79.60000000000000853 ) ) ;
#166 = ORIENTED_EDGE ( 'NONE', *, *, #213, .F. ) ;
#167 = CYLINDRICAL_SURFACE ( 'NONE', #194, 2.135000000000005116 ) ;
#168 = CC_DESIGN_PERSON_AND_ORGANIZATION_ASSIGNMENT ( #214, #88, ( #162 ) ) ;
#169 = DIRECTION ( 'NONE',  ( -3.491481338843133355E-15, 1.224646799147353207E-16, -1.000000000000000000 ) ) ;
#170 = ORGANIZATION ( 'UNSPECIFIED', 'UNSPECIFIED', '' ) ;
#171 = DIRECTION ( 'NONE',  ( 4.275831445896958607E-31, 1.000000000000000000, 1.224646799147353207E-16 ) ) ;
#172 = CARTESIAN_POINT ( 'NONE',  ( 4.189777606611760026E-14, 2.135000000000003784, 12.00000000000000000 ) ) ;
#173 = PERSON_AND_ORGANIZATION_ROLE ( 'design_supplier' ) ;
#174 = MANIFOLD_SOLID_BREP ( 'Corps-Déplacer/Copier1[2]', #10 ) ;
#175 = PERSON_AND_ORGANIZATION ( #46, #170 ) ;
#176 = ADVANCED_BREP_SHAPE_REPRESENTATION ( '321653', ( #14, #174, #118 ), #30 ) ;
#177 = PRODUCT_DEFINITION_FORMATION_WITH_SPECIFIED_SOURCE ( 'ANY', '', #90, .NOT_KNOWN. ) ;
#178 = COORDINATED_UNIVERSAL_TIME_OFFSET ( 1, 0, .AHEAD. ) ;
#179 = FACE_OUTER_BOUND ( 'NONE', #95, .T. ) ;
#180 = ADVANCED_FACE ( 'NONE', ( #132 ), #206, .F. ) ;
#181 = AXIS2_PLACEMENT_3D ( 'NONE', #39, #183, #149 ) ;
#182 = EDGE_LOOP ( 'NONE', ( #226 ) ) ;
#183 = DIRECTION ( 'NONE',  ( 3.491481338843133355E-15, -1.224646799147353207E-16, 1.000000000000000000 ) ) ;
#184 = CARTESIAN_POINT ( 'NONE',  ( 1.396592535537253737E-15, 2.135000000000005116, 0.4000000000000000777 ) ) ;
#185 = ORIENTED_EDGE ( 'NONE', *, *, #243, .F. ) ;
#186 = DIRECTION ( 'NONE',  ( -3.491481338843133355E-15, 1.224646799147353207E-16, -1.000000000000000000 ) ) ;
#187 = ORIENTED_EDGE ( 'NONE', *, *, #104, .F. ) ;
#188 = CC_DESIGN_PERSON_AND_ORGANIZATION_ASSIGNMENT ( #190, #141, ( #145 ) ) ;
#189 = ORIENTED_EDGE ( 'NONE', *, *, #53, .F. ) ;
#190 = PERSON_AND_ORGANIZATION ( #46, #170 ) ;
#191 = DIRECTION ( 'NONE',  ( 4.275831445896957731E-31, 1.000000000000000000, 1.224646799147353207E-16 ) ) ;
#192 = DATE_AND_TIME ( #212, #128 ) ;
#193 = PERSON_AND_ORGANIZATION ( #46, #170 ) ;
#194 = AXIS2_PLACEMENT_3D ( 'NONE', #155, #225, #191 ) ;
#195 = FACE_OUTER_BOUND ( 'NONE', #37, .T. ) ;
#196 = AXIS2_PLACEMENT_3D ( 'NONE', #200, #131, #156 ) ;
#197 = ADVANCED_FACE ( 'NONE', ( #222 ), #203, .F. ) ;
#198 = AXIS2_PLACEMENT_3D ( 'NONE', #13, #123, #89 ) ;
#199 = VERTEX_POINT ( 'NONE', #36 ) ;
#200 = CARTESIAN_POINT ( 'NONE',  ( 2.779219145719134403E-13, -9.748188521212932624E-15, 79.60000000000000853 ) ) ;
#201 = ADVANCED_FACE ( 'NONE', ( #114, #17 ), #154, .T. ) ;
#202 = DIRECTION ( 'NONE',  ( -3.491481338843133355E-15, 1.224646799147353207E-16, -1.000000000000000000 ) ) ;
#203 = PLANE ( 'NONE',  #51 ) ;
#204 = AXIS2_PLACEMENT_3D ( 'NONE', #78, #40, #21 ) ;
#205 = EDGE_LOOP ( 'NONE', ( #187 ) ) ;
#206 = PLANE ( 'NONE',  #3 ) ;
#207 = ADVANCED_FACE ( 'NONE', ( #99, #137 ), #69, .T. ) ;
#208 = DIRECTION ( 'NONE',  ( 0.0000000000000000000, 1.000000000000000000, 0.0000000000000000000 ) ) ;
#209 = SECURITY_CLASSIFICATION_LEVEL ( 'unclassified' ) ;
#210 = CARTESIAN_POINT ( 'NONE',  ( -7.418567558631238746E-31, 2.602083222918328807E-32, -2.124762196520662354E-16 ) ) ;
#211 = FACE_BOUND ( 'NONE', #205, .T. ) ;
#212 = CALENDAR_DATE ( 2021, 2, 12 ) ;
#213 = EDGE_CURVE ( 'NONE', #55, #55, #91, .T. ) ;
#214 = PERSON_AND_ORGANIZATION ( #46, #170 ) ;
#215 = LOCAL_TIME ( 13, 56, 5.000000000000000000, #107 ) ;
#216 = PERSON_AND_ORGANIZATION_ROLE ( 'design_owner' ) ;
#217 = CIRCLE ( 'NONE', #196, 2.000000000000000888 ) ;
#218 = PRODUCT_RELATED_PRODUCT_CATEGORY ( 'detail', '', ( #90 ) ) ;
#219 = CARTESIAN_POINT ( 'NONE',  ( 2.793185071074506684E-13, -9.797174393178826052E-15, 80.00000000000000000 ) ) ;
#220 = FACE_OUTER_BOUND ( 'NONE', #25, .T. ) ;
#221 = CARTESIAN_POINT ( 'NONE',  ( -3.709283779315619373E-31, 1.301041611459164403E-32, -1.062381098260331177E-16 ) ) ;
#222 = FACE_OUTER_BOUND ( 'NONE', #23, .T. ) ;
#223 = VERTEX_POINT ( 'NONE', #151 ) ;
#224 = CC_DESIGN_APPROVAL ( #125, ( #177 ) ) ;
#225 = DIRECTION ( 'NONE',  ( -3.491481338843133355E-15, 1.224646799147353207E-16, -1.000000000000000000 ) ) ;
#226 = ORIENTED_EDGE ( 'NONE', *, *, #119, .F. ) ;
#227 = COORDINATED_UNIVERSAL_TIME_OFFSET ( 1, 0, .AHEAD. ) ;
#228 = DATE_AND_TIME ( #163, #133 ) ;
#229 = APPROVAL_PERSON_ORGANIZATION ( #193, #125, #84 ) ;
#230 =( NAMED_UNIT ( * ) SI_UNIT ( $, .STERADIAN. ) SOLID_ANGLE_UNIT ( ) );
#231 = ADVANCED_FACE ( 'NONE', ( #220 ), #121, .T. ) ;
#232 = MECHANICAL_CONTEXT ( 'NONE', #81, 'mechanical' ) ;
#233 = DIRECTION ( 'NONE',  ( 4.510374577019276763E-31, 1.000000000000000000, 1.269557579022835834E-16 ) ) ;
#234 = CC_DESIGN_DATE_AND_TIME_ASSIGNMENT ( #228, #110, ( #162 ) ) ;
#235 = APPROVAL_DATE_TIME ( #192, #16 ) ;
#236 = AXIS2_PLACEMENT_3D ( 'NONE', #1, #202, #20 ) ;
#237 = CC_DESIGN_PERSON_AND_ORGANIZATION_ASSIGNMENT ( #50, #216, ( #90 ) ) ;
#238 = CARTESIAN_POINT ( 'NONE',  ( 4.189777606611760026E-14, 2.135000000000003784, 12.00000000000000000 ) ) ;
#239 = PLANE ( 'NONE',  #61 ) ;
#240 = VERTEX_POINT ( 'NONE', #238 ) ;
#241 = EDGE_LOOP ( 'NONE', ( #130 ) ) ;
#242 = CARTESIAN_POINT ( 'NONE',  ( 4.271417818091258954E-14, -1.498211690422398958E-15, 12.23382685902181954 ) ) ;
#243 = EDGE_CURVE ( 'NONE', #199, #199, #146, .T. ) ;
ENDSEC;
END-ISO-10303-21;
