ISO-10303-21;
HEADER;
FILE_DESCRIPTION (( 'STEP AP203' ),
    '1' );
FILE_NAME ('321652.step',
    '2021-12-02T12:56:04',
    ( '' ),
    ( '' ),
    'SwSTEP 2.0',
    'SolidWorks 2019',
    '' );
FILE_SCHEMA (( 'CONFIG_CONTROL_DESIGN' ));
ENDSEC;

DATA;
#1 = FACE_OUTER_BOUND ( 'NONE', #62, .T. ) ;
#2 = ORIENTED_EDGE ( 'NONE', *, *, #227, .F. ) ;
#3 = CARTESIAN_POINT ( 'NONE',  ( 0.0000000000000000000, 1.730000000000003535, 0.0000000000000000000 ) ) ;
#4 = EDGE_LOOP ( 'NONE', ( #26 ) ) ;
#5 = CIRCLE ( 'NONE', #19, 2.130000000000004778 ) ;
#6 = VERTEX_POINT ( 'NONE', #3 ) ;
#7 = PERSON_AND_ORGANIZATION_ROLE ( 'design_supplier' ) ;
#8 = DIRECTION ( 'NONE',  ( -3.491481338843133355E-15, 1.224646799147353207E-16, -1.000000000000000000 ) ) ;
#9 = COORDINATED_UNIVERSAL_TIME_OFFSET ( 1, 0, .AHEAD. ) ;
#10 = AXIS2_PLACEMENT_3D ( 'NONE', #179, #216, #156 ) ;
#11 = DIRECTION ( 'NONE',  ( 0.0000000000000000000, 1.000000000000000000, 0.0000000000000000000 ) ) ;
#12 = SECURITY_CLASSIFICATION ( '', '', #27 ) ;
#13 = DIRECTION ( 'NONE',  ( -3.491481338843133355E-15, 1.224646799147353207E-16, -1.000000000000000000 ) ) ;
#14 = CC_DESIGN_DATE_AND_TIME_ASSIGNMENT ( #242, #131, ( #12 ) ) ;
#15 = DIRECTION ( 'NONE',  ( -4.275831445896958607E-31, -1.000000000000000000, -1.224646799147353207E-16 ) ) ;
#16 = DIRECTION ( 'NONE',  ( -3.491481338843133355E-15, 1.224646799147353207E-16, -1.000000000000000000 ) ) ;
#17 = MANIFOLD_SOLID_BREP ( 'Corps-Déplacer/Copier1[1]', #126 ) ;
#18 = PLANE ( 'NONE',  #191 ) ;
#19 = AXIS2_PLACEMENT_3D ( 'NONE', #85, #90, #95 ) ;
#20 = ORIENTED_EDGE ( 'NONE', *, *, #71, .T. ) ;
#21 = ORIENTED_EDGE ( 'NONE', *, *, #58, .T. ) ;
#22 =( LENGTH_UNIT ( ) NAMED_UNIT ( * ) SI_UNIT ( .MILLI., .METRE. ) );
#23 = EDGE_CURVE ( 'NONE', #147, #147, #64, .T. ) ;
#24 = CIRCLE ( 'NONE', #60, 1.600000000000000977 ) ;
#25 = DATE_AND_TIME ( #180, #96 ) ;
#26 = ORIENTED_EDGE ( 'NONE', *, *, #227, .T. ) ;
#27 = SECURITY_CLASSIFICATION_LEVEL ( 'unclassified' ) ;
#28 = ADVANCED_FACE ( 'NONE', ( #69, #236 ), #30, .T. ) ;
#29 = PERSON_AND_ORGANIZATION ( #169, #181 ) ;
#30 = CONICAL_SURFACE ( 'NONE', #237, 2.130000000000004778, 0.5235987755983017022 ) ;
#31 = LOCAL_TIME ( 13, 56, 4.000000000000000000, #112 ) ;
#32 = APPLICATION_PROTOCOL_DEFINITION ( 'international standard', 'config_control_design', 1994, #225 ) ;
#33 = SHAPE_DEFINITION_REPRESENTATION ( #164, #151 ) ;
#34 = AXIS2_PLACEMENT_3D ( 'NONE', #54, #149, #129 ) ;
#35 = FACE_OUTER_BOUND ( 'NONE', #208, .T. ) ;
#36 = APPROVAL_STATUS ( 'not_yet_approved' ) ;
#37 = CARTESIAN_POINT ( 'NONE',  ( 4.189777606611760026E-14, 1.597244168534879885E-32, 12.00000000000000000 ) ) ;
#38 = CONICAL_SURFACE ( 'NONE', #140, 1.600000000000000977, 0.7853981633974512766 ) ;
#39 = CALENDAR_DATE ( 2021, 2, 12 ) ;
#40 = PRODUCT ( '321652', '321652', '', ( #107 ) ) ;
#41 = EDGE_CURVE ( 'NONE', #57, #57, #24, .T. ) ;
#42 = DIRECTION ( 'NONE',  ( -4.275831445896958607E-31, -1.000000000000000000, -1.224646799147353207E-16 ) ) ;
#43 = EDGE_LOOP ( 'NONE', ( #150 ) ) ;
#44 = PRODUCT_DEFINITION_FORMATION_WITH_SPECIFIED_SOURCE ( 'ANY', '', #40, .NOT_KNOWN. ) ;
#45 = ADVANCED_FACE ( 'NONE', ( #218 ), #53, .F. ) ;
#46 = VERTEX_POINT ( 'NONE', #84 ) ;
#47 = EDGE_LOOP ( 'NONE', ( #210 ) ) ;
#48 = APPROVAL_ROLE ( '' ) ;
#49 = PERSON_AND_ORGANIZATION_ROLE ( 'creator' ) ;
#50 = DIRECTION ( 'NONE',  ( -3.491481338843133355E-15, 1.224646799147353207E-16, -1.000000000000000000 ) ) ;
#51 = DIRECTION ( 'NONE',  ( 0.0000000000000000000, 1.000000000000000000, 0.0000000000000000000 ) ) ;
#52 = CLOSED_SHELL ( 'NONE', ( #196, #211, #101, #135 ) ) ;
#53 = PLANE ( 'NONE',  #160 ) ;
#54 = CARTESIAN_POINT ( 'NONE',  ( -7.397188401401753156E-31, 2.594584424005018916E-32, -2.118638962524925232E-16 ) ) ;
#55 = CONICAL_SURFACE ( 'NONE', #154, 1.730000000000003535, 0.7853981633974498333 ) ;
#56 = CARTESIAN_POINT ( 'NONE',  ( 4.189777606611760026E-14, -1.469576158976823947E-15, 12.00000000000000000 ) ) ;
#57 = VERTEX_POINT ( 'NONE', #226 ) ;
#58 = EDGE_CURVE ( 'NONE', #205, #205, #5, .T. ) ;
#59 = CARTESIAN_POINT ( 'NONE',  ( 0.0000000000000000000, 0.0000000000000000000, 0.0000000000000000000 ) ) ;
#60 = AXIS2_PLACEMENT_3D ( 'NONE', #111, #125, #11 ) ;
#61 = ADVANCED_FACE ( 'NONE', ( #200, #223 ), #38, .T. ) ;
#62 = EDGE_LOOP ( 'NONE', ( #21 ) ) ;
#63 = APPROVAL ( #142, 'UNSPECIFIED' ) ;
#64 = CIRCLE ( 'NONE', #199, 1.999999999999991784 ) ;
#65 = ORIENTED_EDGE ( 'NONE', *, *, #41, .T. ) ;
#66 = APPROVAL_PERSON_ORGANIZATION ( #238, #231, #48 ) ;
#67 = CALENDAR_DATE ( 2021, 2, 12 ) ;
#68 = PRODUCT_DEFINITION ( 'UNKNOWN', '', #44, #193 ) ;
#69 = FACE_BOUND ( 'NONE', #214, .T. ) ;
#70 = CARTESIAN_POINT ( 'NONE',  ( 4.189777606611760026E-14, 1.597244168534879885E-32, 12.00000000000000000 ) ) ;
#71 = EDGE_CURVE ( 'NONE', #189, #189, #99, .T. ) ;
#72 = DIRECTION ( 'NONE',  ( -3.491481338843133355E-15, 1.224646799147353207E-16, -1.000000000000000000 ) ) ;
#73 = DIRECTION ( 'NONE',  ( -3.491481338843133355E-15, 1.224646799147353207E-16, -1.000000000000000000 ) ) ;
#74 = DIRECTION ( 'NONE',  ( 4.275831445896958607E-31, 1.000000000000000000, 1.224646799147353207E-16 ) ) ;
#75 = DIRECTION ( 'NONE',  ( 3.491481338843133355E-15, -1.224646799147353207E-16, 1.000000000000000000 ) ) ;
#76 = CC_DESIGN_DATE_AND_TIME_ASSIGNMENT ( #25, #105, ( #68 ) ) ;
#77 = ORIENTED_EDGE ( 'NONE', *, *, #23, .T. ) ;
#78 = UNCERTAINTY_MEASURE_WITH_UNIT (LENGTH_MEASURE( 1.000000000000000082E-05 ), #22, 'distance_accuracy_value', 'NONE');
#79 = CC_DESIGN_PERSON_AND_ORGANIZATION_ASSIGNMENT ( #194, #109, ( #40 ) ) ;
#80 = ORIENTED_EDGE ( 'NONE', *, *, #71, .F. ) ;
#81 = LOCAL_TIME ( 13, 56, 4.000000000000000000, #87 ) ;
#82 = CARTESIAN_POINT ( 'NONE',  ( 4.189777606611760026E-14, 2.130000000000003446, 12.00000000000000000 ) ) ;
#83 = DATE_AND_TIME ( #67, #81 ) ;
#84 = CARTESIAN_POINT ( 'NONE',  ( 1.396592535537253737E-15, 2.130000000000004778, 0.4000000000000000777 ) ) ;
#85 = CARTESIAN_POINT ( 'NONE',  ( 4.189777606611760026E-14, -1.469576158976823947E-15, 12.00000000000000000 ) ) ;
#86 = CIRCLE ( 'NONE', #165, 2.000000000000000888 ) ;
#87 = COORDINATED_UNIVERSAL_TIME_OFFSET ( 1, 0, .AHEAD. ) ;
#88 = PERSON_AND_ORGANIZATION ( #169, #181 ) ;
#89 = APPLICATION_PROTOCOL_DEFINITION ( 'international standard', 'config_control_design', 1994, #203 ) ;
#90 = DIRECTION ( 'NONE',  ( -3.491481338843133355E-15, 1.224646799147353207E-16, -1.000000000000000000 ) ) ;
#91 = DIRECTION ( 'NONE',  ( 0.0000000000000000000, 1.000000000000000000, 0.0000000000000000000 ) ) ;
#92 = APPROVAL ( #36, 'UNSPECIFIED' ) ;
#93 = FACE_OUTER_BOUND ( 'NONE', #192, .T. ) ;
#94 = PERSON_AND_ORGANIZATION ( #169, #181 ) ;
#95 = DIRECTION ( 'NONE',  ( 0.0000000000000000000, 1.000000000000000000, 0.0000000000000000000 ) ) ;
#96 = LOCAL_TIME ( 13, 56, 4.000000000000000000, #9 ) ;
#97 = DIRECTION ( 'NONE',  ( 4.520962310768148704E-31, 1.000000000000000000, 1.272537761133218190E-16 ) ) ;
#98 = CYLINDRICAL_SURFACE ( 'NONE', #188, 2.130000000000004778 ) ;
#99 = CIRCLE ( 'NONE', #122, 2.130000000000004778 ) ;
#100 = ORIENTED_EDGE ( 'NONE', *, *, #173, .F. ) ;
#101 = ADVANCED_FACE ( 'NONE', ( #113 ), #219, .T. ) ;
#102 = EDGE_LOOP ( 'NONE', ( #2 ) ) ;
#103 = EDGE_LOOP ( 'NONE', ( #65 ) ) ;
#104 = CC_DESIGN_PERSON_AND_ORGANIZATION_ASSIGNMENT ( #172, #7, ( #44 ) ) ;
#105 = DATE_TIME_ROLE ( 'creation_date' ) ;
#106 =( NAMED_UNIT ( * ) PLANE_ANGLE_UNIT ( ) SI_UNIT ( $, .RADIAN. ) );
#107 = MECHANICAL_CONTEXT ( 'NONE', #225, 'mechanical' ) ;
#108 = LOCAL_TIME ( 13, 56, 4.000000000000000000, #161 ) ;
#109 = PERSON_AND_ORGANIZATION_ROLE ( 'design_owner' ) ;
#110 = APPROVAL_STATUS ( 'not_yet_approved' ) ;
#111 = CARTESIAN_POINT ( 'NONE',  ( 2.793185071074506684E-13, -9.797174393178826052E-15, 80.00000000000000000 ) ) ;
#112 = COORDINATED_UNIVERSAL_TIME_OFFSET ( 1, 0, .AHEAD. ) ;
#113 = FACE_OUTER_BOUND ( 'NONE', #4, .T. ) ;
#114 = FACE_OUTER_BOUND ( 'NONE', #139, .T. ) ;
#115 = CALENDAR_DATE ( 2021, 2, 12 ) ;
#116 = CC_DESIGN_APPROVAL ( #92, ( #12 ) ) ;
#117 = CARTESIAN_POINT ( 'NONE',  ( 4.189777606611760026E-14, 2.130000000000003446, 12.00000000000000000 ) ) ;
#118 = PLANE ( 'NONE',  #171 ) ;
#119 = EDGE_LOOP ( 'NONE', ( #170 ) ) ;
#120 = AXIS2_PLACEMENT_3D ( 'NONE', #184, #16, #134 ) ;
#121 = EDGE_LOOP ( 'NONE', ( #152 ) ) ;
#122 = AXIS2_PLACEMENT_3D ( 'NONE', #56, #130, #144 ) ;
#123 = APPROVAL_DATE_TIME ( #83, #231 ) ;
#124 = APPROVAL_ROLE ( '' ) ;
#125 = DIRECTION ( 'NONE',  ( -3.491481338843133355E-15, 1.224646799147353207E-16, -1.000000000000000000 ) ) ;
#126 = CLOSED_SHELL ( 'NONE', ( #202, #28, #220, #61, #45 ) ) ;
#127 = DIRECTION ( 'NONE',  ( 0.0000000000000000000, 1.000000000000000000, 0.0000000000000000000 ) ) ;
#128 = CARTESIAN_POINT ( 'NONE',  ( 2.793185071074506684E-13, 1.199807826129472128E-32, 80.00000000000000000 ) ) ;
#129 = DIRECTION ( 'NONE',  ( 4.275831445896958607E-31, 1.000000000000000000, 1.224646799147353207E-16 ) ) ;
#130 = DIRECTION ( 'NONE',  ( -3.491481338843133355E-15, 1.224646799147353207E-16, -1.000000000000000000 ) ) ;
#131 = DATE_TIME_ROLE ( 'classification_date' ) ;
#132 = DIRECTION ( 'NONE',  ( 0.0000000000000000000, 1.000000000000000000, 0.0000000000000000000 ) ) ;
#133 = FACE_BOUND ( 'NONE', #102, .T. ) ;
#134 = DIRECTION ( 'NONE',  ( 4.275831445896958607E-31, 1.000000000000000000, 1.224646799147353207E-16 ) ) ;
#135 = ADVANCED_FACE ( 'NONE', ( #201, #133 ), #55, .T. ) ;
#136 = CIRCLE ( 'NONE', #34, 1.730000000000003535 ) ;
#137 = APPROVAL_PERSON_ORGANIZATION ( #94, #92, #204 ) ;
#138 = CARTESIAN_POINT ( 'NONE',  ( 4.268394106554981450E-14, -1.497151115183673914E-15, 12.22516660498397556 ) ) ;
#139 = EDGE_LOOP ( 'NONE', ( #195 ) ) ;
#140 = AXIS2_PLACEMENT_3D ( 'NONE', #148, #73, #91 ) ;
#141 = PERSON_AND_ORGANIZATION ( #169, #181 ) ;
#142 = APPROVAL_STATUS ( 'not_yet_approved' ) ;
#143 = PERSON_AND_ORGANIZATION_ROLE ( 'classification_officer' ) ;
#144 = DIRECTION ( 'NONE',  ( 0.0000000000000000000, 1.000000000000000000, 0.0000000000000000000 ) ) ;
#145 = CYLINDRICAL_SURFACE ( 'NONE', #240, 1.999999999999996669 ) ;
#146 = CC_DESIGN_APPROVAL ( #231, ( #68 ) ) ;
#147 = VERTEX_POINT ( 'NONE', #224 ) ;
#148 = CARTESIAN_POINT ( 'NONE',  ( 2.793185071074506684E-13, -9.797174393178826052E-15, 80.00000000000000000 ) ) ;
#149 = DIRECTION ( 'NONE',  ( -3.491481338843133355E-15, 1.224646799147353207E-16, -1.000000000000000000 ) ) ;
#150 = ORIENTED_EDGE ( 'NONE', *, *, #58, .F. ) ;
#151 = ADVANCED_BREP_SHAPE_REPRESENTATION ( '321652', ( #17, #183, #10 ), #222 ) ;
#152 = ORIENTED_EDGE ( 'NONE', *, *, #173, .T. ) ;
#153 = EDGE_LOOP ( 'NONE', ( #212 ) ) ;
#154 = AXIS2_PLACEMENT_3D ( 'NONE', #243, #75, #15 ) ;
#155 = VERTEX_POINT ( 'NONE', #230 ) ;
#156 = DIRECTION ( 'NONE',  ( 1.000000000000000000, 0.0000000000000000000, 0.0000000000000000000 ) ) ;
#157 = DATE_AND_TIME ( #197, #229 ) ;
#158 = AXIS2_PLACEMENT_3D ( 'NONE', #228, #207, #97 ) ;
#159 = DIRECTION ( 'NONE',  ( -4.275831445896958607E-31, -1.000000000000000000, -1.224646799147353207E-16 ) ) ;
#160 = AXIS2_PLACEMENT_3D ( 'NONE', #128, #8, #178 ) ;
#161 = COORDINATED_UNIVERSAL_TIME_OFFSET ( 1, 0, .AHEAD. ) ;
#162 = DIRECTION ( 'NONE',  ( 3.491481338843133355E-15, -1.224646799147353207E-16, 1.000000000000000000 ) ) ;
#163 = CC_DESIGN_PERSON_AND_ORGANIZATION_ASSIGNMENT ( #174, #143, ( #12 ) ) ;
#164 = PRODUCT_DEFINITION_SHAPE ( 'NONE', 'NONE',  #68 ) ;
#165 = AXIS2_PLACEMENT_3D ( 'NONE', #239, #72, #132 ) ;
#166 = DIRECTION ( 'NONE',  ( 3.491481338843133355E-15, -1.224646799147353207E-16, 1.000000000000000000 ) ) ;
#167 = CC_DESIGN_PERSON_AND_ORGANIZATION_ASSIGNMENT ( #141, #177, ( #68 ) ) ;
#168 = EDGE_LOOP ( 'NONE', ( #100 ) ) ;
#169 = PERSON ( 'UNSPECIFIED', 'UNSPECIFIED', 'UNSPECIFIED', ('UNSPECIFIED'), ('UNSPECIFIED'), ('UNSPECIFIED') ) ;
#170 = ORIENTED_EDGE ( 'NONE', *, *, #235, .F. ) ;
#171 = AXIS2_PLACEMENT_3D ( 'NONE', #37, #162, #42 ) ;
#172 = PERSON_AND_ORGANIZATION ( #169, #181 ) ;
#173 = EDGE_CURVE ( 'NONE', #46, #46, #198, .T. ) ;
#174 = PERSON_AND_ORGANIZATION ( #169, #181 ) ;
#175 = DIRECTION ( 'NONE',  ( -3.491481338843133355E-15, 1.224646799147353207E-16, -1.000000000000000000 ) ) ;
#176 = APPROVAL_PERSON_ORGANIZATION ( #88, #63, #124 ) ;
#177 = PERSON_AND_ORGANIZATION_ROLE ( 'creator' ) ;
#178 = DIRECTION ( 'NONE',  ( 4.275831445896958607E-31, 1.000000000000000000, 1.224646799147353207E-16 ) ) ;
#179 = CARTESIAN_POINT ( 'NONE',  ( 0.0000000000000000000, 0.0000000000000000000, 0.0000000000000000000 ) ) ;
#180 = CALENDAR_DATE ( 2021, 2, 12 ) ;
#181 = ORGANIZATION ( 'UNSPECIFIED', 'UNSPECIFIED', '' ) ;
#182 =( NAMED_UNIT ( * ) SI_UNIT ( $, .STERADIAN. ) SOLID_ANGLE_UNIT ( ) );
#183 = MANIFOLD_SOLID_BREP ( 'Corps-Déplacer/Copier1[2]', #52 ) ;
#184 = CARTESIAN_POINT ( 'NONE',  ( -3.698594200700876578E-31, 1.297292212002509458E-32, -1.059319481262462616E-16 ) ) ;
#185 = PRODUCT_RELATED_PRODUCT_CATEGORY ( 'detail', '', ( #40 ) ) ;
#186 = CARTESIAN_POINT ( 'NONE',  ( 0.0000000000000000000, 0.0000000000000000000, 0.0000000000000000000 ) ) ;
#187 = DATE_AND_TIME ( #115, #31 ) ;
#188 = AXIS2_PLACEMENT_3D ( 'NONE', #59, #190, #241 ) ;
#189 = VERTEX_POINT ( 'NONE', #82 ) ;
#190 = DIRECTION ( 'NONE',  ( -3.491481338843133355E-15, 1.224646799147353207E-16, -1.000000000000000000 ) ) ;
#191 = AXIS2_PLACEMENT_3D ( 'NONE', #70, #166, #159 ) ;
#192 = EDGE_LOOP ( 'NONE', ( #80 ) ) ;
#193 = DESIGN_CONTEXT ( 'detailed design', #203, 'design' ) ;
#194 = PERSON_AND_ORGANIZATION ( #169, #181 ) ;
#195 = ORIENTED_EDGE ( 'NONE', *, *, #235, .T. ) ;
#196 = ADVANCED_FACE ( 'NONE', ( #35, #206 ), #98, .T. ) ;
#197 = CALENDAR_DATE ( 2021, 2, 12 ) ;
#198 = CIRCLE ( 'NONE', #158, 2.130000000000004778 ) ;
#199 = AXIS2_PLACEMENT_3D ( 'NONE', #138, #50, #51 ) ;
#200 = FACE_OUTER_BOUND ( 'NONE', #119, .T. ) ;
#201 = FACE_OUTER_BOUND ( 'NONE', #121, .T. ) ;
#202 = ADVANCED_FACE ( 'NONE', ( #1 ), #118, .F. ) ;
#203 = APPLICATION_CONTEXT ( 'configuration controlled 3d designs of mechanical parts and assemblies' ) ;
#204 = APPROVAL_ROLE ( '' ) ;
#205 = VERTEX_POINT ( 'NONE', #117 ) ;
#206 = FACE_OUTER_BOUND ( 'NONE', #168, .T. ) ;
#207 = DIRECTION ( 'NONE',  ( -3.491481338843133355E-15, 1.224646799147353207E-16, -1.000000000000000000 ) ) ;
#208 = EDGE_LOOP ( 'NONE', ( #20 ) ) ;
#209 = CC_DESIGN_APPROVAL ( #63, ( #44 ) ) ;
#210 = ORIENTED_EDGE ( 'NONE', *, *, #23, .F. ) ;
#211 = ADVANCED_FACE ( 'NONE', ( #93 ), #18, .T. ) ;
#212 = ORIENTED_EDGE ( 'NONE', *, *, #41, .F. ) ;
#213 = CC_DESIGN_PERSON_AND_ORGANIZATION_ASSIGNMENT ( #29, #49, ( #44 ) ) ;
#214 = EDGE_LOOP ( 'NONE', ( #77 ) ) ;
#215 = CARTESIAN_POINT ( 'NONE',  ( 4.189777606611760026E-14, -1.469576158976823947E-15, 12.00000000000000000 ) ) ;
#216 = DIRECTION ( 'NONE',  ( 0.0000000000000000000, 0.0000000000000000000, 1.000000000000000000 ) ) ;
#217 = APPROVAL_DATE_TIME ( #187, #92 ) ;
#218 = FACE_OUTER_BOUND ( 'NONE', #153, .T. ) ;
#219 = PLANE ( 'NONE',  #120 ) ;
#220 = ADVANCED_FACE ( 'NONE', ( #221, #114 ), #145, .T. ) ;
#221 = FACE_OUTER_BOUND ( 'NONE', #47, .T. ) ;
#222 =( GEOMETRIC_REPRESENTATION_CONTEXT ( 3 ) GLOBAL_UNCERTAINTY_ASSIGNED_CONTEXT ( ( #78 ) ) GLOBAL_UNIT_ASSIGNED_CONTEXT ( ( #22, #106, #182 ) ) REPRESENTATION_CONTEXT ( 'NONE', 'WORKASPACE' ) );
#223 = FACE_BOUND ( 'NONE', #103, .T. ) ;
#224 = CARTESIAN_POINT ( 'NONE',  ( 4.268394106554981450E-14, 1.999999999999990452, 12.22516660498397556 ) ) ;
#225 = APPLICATION_CONTEXT ( 'configuration controlled 3d designs of mechanical parts and assemblies' ) ;
#226 = CARTESIAN_POINT ( 'NONE',  ( 2.793185071074506684E-13, 1.599999999999991207, 80.00000000000000000 ) ) ;
#227 = EDGE_CURVE ( 'NONE', #6, #6, #136, .T. ) ;
#228 = CARTESIAN_POINT ( 'NONE',  ( 1.396592535537252750E-15, -4.898587196589410610E-17, 0.3999999999999998002 ) ) ;
#229 = LOCAL_TIME ( 13, 56, 4.000000000000000000, #233 ) ;
#230 = CARTESIAN_POINT ( 'NONE',  ( 2.779219145719134403E-13, 1.999999999999991340, 79.60000000000000853 ) ) ;
#231 = APPROVAL ( #110, 'UNSPECIFIED' ) ;
#232 = CC_DESIGN_SECURITY_CLASSIFICATION ( #12, ( #44 ) ) ;
#233 = COORDINATED_UNIVERSAL_TIME_OFFSET ( 1, 0, .AHEAD. ) ;
#234 = APPROVAL_DATE_TIME ( #157, #63 ) ;
#235 = EDGE_CURVE ( 'NONE', #155, #155, #86, .T. ) ;
#236 = FACE_OUTER_BOUND ( 'NONE', #43, .T. ) ;
#237 = AXIS2_PLACEMENT_3D ( 'NONE', #215, #175, #127 ) ;
#238 = PERSON_AND_ORGANIZATION ( #169, #181 ) ;
#239 = CARTESIAN_POINT ( 'NONE',  ( 2.779219145719134403E-13, -9.748188521212932624E-15, 79.60000000000000853 ) ) ;
#240 = AXIS2_PLACEMENT_3D ( 'NONE', #186, #13, #74 ) ;
#241 = DIRECTION ( 'NONE',  ( 4.275831445896958607E-31, 1.000000000000000000, 1.224646799147353207E-16 ) ) ;
#242 = DATE_AND_TIME ( #39, #108 ) ;
#243 = CARTESIAN_POINT ( 'NONE',  ( -7.397188401401753156E-31, 2.594584424005018916E-32, -2.118638962524925232E-16 ) ) ;
ENDSEC;
END-ISO-10303-21;
