ISO-10303-21;
HEADER;
FILE_DESCRIPTION (( 'STEP AP203' ),
    '1' );
FILE_NAME ('321651.step',
    '2021-12-02T12:56:04',
    ( '' ),
    ( '' ),
    'SwSTEP 2.0',
    'SolidWorks 2019',
    '' );
FILE_SCHEMA (( 'CONFIG_CONTROL_DESIGN' ));
ENDSEC;

DATA;
#1 = DATE_AND_TIME ( #78, #194 ) ;
#2 = PERSON_AND_ORGANIZATION ( #153, #36 ) ;
#3 = CARTESIAN_POINT ( 'NONE',  ( 4.265370395018704576E-14, -1.496090539944949264E-15, 12.21650635094613158 ) ) ;
#4 = EDGE_LOOP ( 'NONE', ( #138 ) ) ;
#5 = COORDINATED_UNIVERSAL_TIME_OFFSET ( 1, 0, .AHEAD. ) ;
#6 = DIRECTION ( 'NONE',  ( -3.491481338843133355E-15, 1.224646799147353207E-16, -1.000000000000000000 ) ) ;
#7 = ADVANCED_FACE ( 'NONE', ( #98 ), #28, .F. ) ;
#8 = DIRECTION ( 'NONE',  ( 0.0000000000000000000, 1.000000000000000000, 0.0000000000000000000 ) ) ;
#9 = FACE_OUTER_BOUND ( 'NONE', #4, .T. ) ;
#10 = DIRECTION ( 'NONE',  ( 3.491481338843133355E-15, -1.224646799147353207E-16, 1.000000000000000000 ) ) ;
#11 = ADVANCED_BREP_SHAPE_REPRESENTATION ( '321651', ( #125, #124, #119 ), #53 ) ;
#12 = PRODUCT_DEFINITION_FORMATION_WITH_SPECIFIED_SOURCE ( 'ANY', '', #38, .NOT_KNOWN. ) ;
#13 = CARTESIAN_POINT ( 'NONE',  ( -7.375809244172269317E-31, 2.587085625091710121E-32, -2.112515728529188849E-16 ) ) ;
#14 = CONICAL_SURFACE ( 'NONE', #174, 2.125000000000004885, 0.5235987755983005920 ) ;
#15 = EDGE_LOOP ( 'NONE', ( #186 ) ) ;
#16 = ADVANCED_FACE ( 'NONE', ( #120 ), #161, .F. ) ;
#17 = EDGE_LOOP ( 'NONE', ( #230 ) ) ;
#18 = PERSON_AND_ORGANIZATION ( #153, #36 ) ;
#19 = EDGE_LOOP ( 'NONE', ( #242 ) ) ;
#20 = CARTESIAN_POINT ( 'NONE',  ( 4.189777606611760026E-14, -1.469576158976823947E-15, 12.00000000000000000 ) ) ;
#21 = PERSON_AND_ORGANIZATION ( #153, #36 ) ;
#22 = CARTESIAN_POINT ( 'NONE',  ( 4.189777606611760026E-14, -1.469576158976823947E-15, 12.00000000000000000 ) ) ;
#23 = SECURITY_CLASSIFICATION ( '', '', #97 ) ;
#24 = CC_DESIGN_PERSON_AND_ORGANIZATION_ASSIGNMENT ( #115, #135, ( #12 ) ) ;
#25 = CIRCLE ( 'NONE', #164, 1.725000000000003642 ) ;
#26 = FACE_OUTER_BOUND ( 'NONE', #103, .T. ) ;
#27 = DIRECTION ( 'NONE',  ( -3.491481338843133355E-15, 1.224646799147353207E-16, -1.000000000000000000 ) ) ;
#28 = PLANE ( 'NONE',  #216 ) ;
#29 = PERSON_AND_ORGANIZATION ( #153, #36 ) ;
#30 = CC_DESIGN_SECURITY_CLASSIFICATION ( #23, ( #12 ) ) ;
#31 = PRODUCT_DEFINITION ( 'UNKNOWN', '', #12, #81 ) ;
#32 = DIRECTION ( 'NONE',  ( -3.491481338843133355E-15, 1.224646799147353207E-16, -1.000000000000000000 ) ) ;
#33 = AXIS2_PLACEMENT_3D ( 'NONE', #13, #52, #92 ) ;
#34 = APPROVAL ( #56, 'UNSPECIFIED' ) ;
#35 = EDGE_LOOP ( 'NONE', ( #225 ) ) ;
#36 = ORGANIZATION ( 'UNSPECIFIED', 'UNSPECIFIED', '' ) ;
#37 = DATE_AND_TIME ( #117, #203 ) ;
#38 = PRODUCT ( '321651', '321651', '', ( #71 ) ) ;
#39 = COORDINATED_UNIVERSAL_TIME_OFFSET ( 1, 0, .AHEAD. ) ;
#40 = EDGE_LOOP ( 'NONE', ( #84 ) ) ;
#41 = CALENDAR_DATE ( 2021, 2, 12 ) ;
#42 = DIRECTION ( 'NONE',  ( 4.275831445896958607E-31, 1.000000000000000000, 1.224646799147352961E-16 ) ) ;
#43 = PERSON_AND_ORGANIZATION ( #153, #36 ) ;
#44 = DIRECTION ( 'NONE',  ( -3.491481338843133355E-15, 1.224646799147353207E-16, -1.000000000000000000 ) ) ;
#45 = FACE_OUTER_BOUND ( 'NONE', #190, .T. ) ;
#46 = AXIS2_PLACEMENT_3D ( 'NONE', #227, #10, #86 ) ;
#47 = DIRECTION ( 'NONE',  ( 0.0000000000000000000, 1.000000000000000000, 0.0000000000000000000 ) ) ;
#48 = DIRECTION ( 'NONE',  ( 3.491481338843133355E-15, -1.224646799147353207E-16, 1.000000000000000000 ) ) ;
#49 = VERTEX_POINT ( 'NONE', #163 ) ;
#50 = APPLICATION_PROTOCOL_DEFINITION ( 'international standard', 'config_control_design', 1994, #178 ) ;
#51 = CC_DESIGN_PERSON_AND_ORGANIZATION_ASSIGNMENT ( #21, #168, ( #23 ) ) ;
#52 = DIRECTION ( 'NONE',  ( 3.491481338843133355E-15, -1.224646799147353207E-16, 1.000000000000000000 ) ) ;
#53 =( GEOMETRIC_REPRESENTATION_CONTEXT ( 3 ) GLOBAL_UNCERTAINTY_ASSIGNED_CONTEXT ( ( #167 ) ) GLOBAL_UNIT_ASSIGNED_CONTEXT ( ( #185, #146, #106 ) ) REPRESENTATION_CONTEXT ( 'NONE', 'WORKASPACE' ) );
#54 = CIRCLE ( 'NONE', #184, 2.125000000000004885 ) ;
#55 = EDGE_CURVE ( 'NONE', #49, #49, #112, .T. ) ;
#56 = APPROVAL_STATUS ( 'not_yet_approved' ) ;
#57 = COORDINATED_UNIVERSAL_TIME_OFFSET ( 1, 0, .AHEAD. ) ;
#58 = FACE_OUTER_BOUND ( 'NONE', #35, .T. ) ;
#59 = DATE_AND_TIME ( #209, #214 ) ;
#60 = CARTESIAN_POINT ( 'NONE',  ( 2.779219145719134403E-13, -9.748188521212932624E-15, 79.60000000000000853 ) ) ;
#61 = EDGE_LOOP ( 'NONE', ( #100 ) ) ;
#62 = DIRECTION ( 'NONE',  ( 4.531599869146426895E-31, 1.000000000000000000, 1.275531967630002287E-16 ) ) ;
#63 = APPROVAL_PERSON_ORGANIZATION ( #29, #243, #151 ) ;
#64 = FACE_OUTER_BOUND ( 'NONE', #40, .T. ) ;
#65 = CYLINDRICAL_SURFACE ( 'NONE', #222, 2.125000000000004885 ) ;
#66 = VERTEX_POINT ( 'NONE', #70 ) ;
#67 = DIRECTION ( 'NONE',  ( 0.0000000000000000000, 0.0000000000000000000, 1.000000000000000000 ) ) ;
#68 = ADVANCED_FACE ( 'NONE', ( #45, #234 ), #160, .T. ) ;
#69 = AXIS2_PLACEMENT_3D ( 'NONE', #193, #6, #8 ) ;
#70 = CARTESIAN_POINT ( 'NONE',  ( 0.0000000000000000000, 1.725000000000003642, 0.0000000000000000000 ) ) ;
#71 = MECHANICAL_CONTEXT ( 'NONE', #130, 'mechanical' ) ;
#72 = CC_DESIGN_APPROVAL ( #233, ( #12 ) ) ;
#73 = CC_DESIGN_DATE_AND_TIME_ASSIGNMENT ( #223, #133, ( #23 ) ) ;
#74 = CIRCLE ( 'NONE', #111, 1.999999999999991784 ) ;
#75 = CLOSED_SHELL ( 'NONE', ( #16, #121, #206, #68, #7 ) ) ;
#76 = DATE_AND_TIME ( #224, #141 ) ;
#77 = ORIENTED_EDGE ( 'NONE', *, *, #140, .T. ) ;
#78 = CALENDAR_DATE ( 2021, 2, 12 ) ;
#79 = LOCAL_TIME ( 13, 56, 4.000000000000000000, #191 ) ;
#80 = DIRECTION ( 'NONE',  ( 0.0000000000000000000, 1.000000000000000000, 0.0000000000000000000 ) ) ;
#81 = DESIGN_CONTEXT ( 'detailed design', #178, 'design' ) ;
#82 = EDGE_LOOP ( 'NONE', ( #113 ) ) ;
#83 = CARTESIAN_POINT ( 'NONE',  ( -3.687904622086134659E-31, 1.293542812545855061E-32, -1.056257864264594425E-16 ) ) ;
#84 = ORIENTED_EDGE ( 'NONE', *, *, #156, .F. ) ;
#85 = FACE_OUTER_BOUND ( 'NONE', #15, .T. ) ;
#86 = DIRECTION ( 'NONE',  ( -4.275831445896958607E-31, -1.000000000000000000, -1.224646799147353207E-16 ) ) ;
#87 = DIRECTION ( 'NONE',  ( -3.491481338843133355E-15, 1.224646799147353207E-16, -1.000000000000000000 ) ) ;
#88 = CLOSED_SHELL ( 'NONE', ( #107, #114, #201, #221 ) ) ;
#89 = CC_DESIGN_APPROVAL ( #243, ( #31 ) ) ;
#90 = CARTESIAN_POINT ( 'NONE',  ( -7.375809244172269317E-31, 2.587085625091710121E-32, -2.112515728529188849E-16 ) ) ;
#91 = AXIS2_PLACEMENT_3D ( 'NONE', #83, #27, #139 ) ;
#92 = DIRECTION ( 'NONE',  ( -4.275831445896958607E-31, -1.000000000000000000, -1.224646799147353207E-16 ) ) ;
#93 = ORIENTED_EDGE ( 'NONE', *, *, #147, .F. ) ;
#94 = CC_DESIGN_PERSON_AND_ORGANIZATION_ASSIGNMENT ( #2, #210, ( #31 ) ) ;
#95 = CC_DESIGN_APPROVAL ( #34, ( #23 ) ) ;
#96 = DIRECTION ( 'NONE',  ( -3.491481338843133355E-15, 1.224646799147353207E-16, -1.000000000000000000 ) ) ;
#97 = SECURITY_CLASSIFICATION_LEVEL ( 'unclassified' ) ;
#98 = FACE_OUTER_BOUND ( 'NONE', #228, .T. ) ;
#99 = CIRCLE ( 'NONE', #238, 2.125000000000004885 ) ;
#100 = ORIENTED_EDGE ( 'NONE', *, *, #140, .F. ) ;
#101 = DIRECTION ( 'NONE',  ( -3.491481338843133355E-15, 1.224646799147353207E-16, -1.000000000000000000 ) ) ;
#102 = CC_DESIGN_DATE_AND_TIME_ASSIGNMENT ( #1, #192, ( #31 ) ) ;
#103 = EDGE_LOOP ( 'NONE', ( #157 ) ) ;
#104 = CARTESIAN_POINT ( 'NONE',  ( 0.0000000000000000000, 0.0000000000000000000, 0.0000000000000000000 ) ) ;
#105 = PLANE ( 'NONE',  #91 ) ;
#106 =( NAMED_UNIT ( * ) SI_UNIT ( $, .STERADIAN. ) SOLID_ANGLE_UNIT ( ) );
#107 = ADVANCED_FACE ( 'NONE', ( #58, #154 ), #65, .T. ) ;
#108 = CARTESIAN_POINT ( 'NONE',  ( 2.779219145719134403E-13, 1.999999999999991340, 79.60000000000000853 ) ) ;
#109 = CARTESIAN_POINT ( 'NONE',  ( 4.265370395018704576E-14, 1.999999999999990452, 12.21650635094613158 ) ) ;
#110 = DIRECTION ( 'NONE',  ( 4.275831445896958607E-31, 1.000000000000000000, 1.224646799147353207E-16 ) ) ;
#111 = AXIS2_PLACEMENT_3D ( 'NONE', #3, #231, #47 ) ;
#112 = CIRCLE ( 'NONE', #241, 2.125000000000004885 ) ;
#113 = ORIENTED_EDGE ( 'NONE', *, *, #207, .F. ) ;
#114 = ADVANCED_FACE ( 'NONE', ( #64 ), #144, .T. ) ;
#115 = PERSON_AND_ORGANIZATION ( #153, #36 ) ;
#116 = ORIENTED_EDGE ( 'NONE', *, *, #55, .T. ) ;
#117 = CALENDAR_DATE ( 2021, 2, 12 ) ;
#118 = DIRECTION ( 'NONE',  ( 0.0000000000000000000, 1.000000000000000000, 0.0000000000000000000 ) ) ;
#119 = AXIS2_PLACEMENT_3D ( 'NONE', #237, #67, #180 ) ;
#120 = FACE_OUTER_BOUND ( 'NONE', #134, .T. ) ;
#121 = ADVANCED_FACE ( 'NONE', ( #123, #26 ), #14, .T. ) ;
#122 = AXIS2_PLACEMENT_3D ( 'NONE', #218, #48, #129 ) ;
#123 = FACE_BOUND ( 'NONE', #152, .T. ) ;
#124 = MANIFOLD_SOLID_BREP ( 'Corps-Déplacer/Copier1[2]', #88 ) ;
#125 = MANIFOLD_SOLID_BREP ( 'Corps-Déplacer/Copier1[1]', #75 ) ;
#126 = PRODUCT_RELATED_PRODUCT_CATEGORY ( 'detail', '', ( #38 ) ) ;
#127 = CYLINDRICAL_SURFACE ( 'NONE', #205, 1.999999999999996669 ) ;
#128 = APPROVAL_PERSON_ORGANIZATION ( #43, #34, #132 ) ;
#129 = DIRECTION ( 'NONE',  ( -4.275831445896958607E-31, -1.000000000000000000, -1.224646799147353207E-16 ) ) ;
#130 = APPLICATION_CONTEXT ( 'configuration controlled 3d designs of mechanical parts and assemblies' ) ;
#131 = AXIS2_PLACEMENT_3D ( 'NONE', #162, #211, #136 ) ;
#132 = APPROVAL_ROLE ( '' ) ;
#133 = DATE_TIME_ROLE ( 'classification_date' ) ;
#134 = EDGE_LOOP ( 'NONE', ( #116 ) ) ;
#135 = PERSON_AND_ORGANIZATION_ROLE ( 'creator' ) ;
#136 = DIRECTION ( 'NONE',  ( 0.0000000000000000000, 1.000000000000000000, 0.0000000000000000000 ) ) ;
#137 = SHAPE_DEFINITION_REPRESENTATION ( #176, #11 ) ;
#138 = ORIENTED_EDGE ( 'NONE', *, *, #207, .T. ) ;
#139 = DIRECTION ( 'NONE',  ( 4.275831445896958607E-31, 1.000000000000000000, 1.224646799147353207E-16 ) ) ;
#140 = EDGE_CURVE ( 'NONE', #200, #200, #74, .T. ) ;
#141 = LOCAL_TIME ( 13, 56, 4.000000000000000000, #57 ) ;
#142 = FACE_BOUND ( 'NONE', #204, .T. ) ;
#143 = CONICAL_SURFACE ( 'NONE', #33, 1.725000000000003642, 0.7853981633974498333 ) ;
#144 = PLANE ( 'NONE',  #122 ) ;
#145 = CARTESIAN_POINT ( 'NONE',  ( 0.0000000000000000000, 0.0000000000000000000, 0.0000000000000000000 ) ) ;
#146 =( NAMED_UNIT ( * ) PLANE_ANGLE_UNIT ( ) SI_UNIT ( $, .RADIAN. ) );
#147 = EDGE_CURVE ( 'NONE', #148, #148, #169, .T. ) ;
#148 = VERTEX_POINT ( 'NONE', #108 ) ;
#149 = CIRCLE ( 'NONE', #69, 1.600000000000000977 ) ;
#150 = APPROVAL_DATE_TIME ( #76, #243 ) ;
#151 = APPROVAL_ROLE ( '' ) ;
#152 = EDGE_LOOP ( 'NONE', ( #77 ) ) ;
#153 = PERSON ( 'UNSPECIFIED', 'UNSPECIFIED', 'UNSPECIFIED', ('UNSPECIFIED'), ('UNSPECIFIED'), ('UNSPECIFIED') ) ;
#154 = FACE_OUTER_BOUND ( 'NONE', #82, .T. ) ;
#155 = APPROVAL_STATUS ( 'not_yet_approved' ) ;
#156 = EDGE_CURVE ( 'NONE', #220, #220, #54, .T. ) ;
#157 = ORIENTED_EDGE ( 'NONE', *, *, #55, .F. ) ;
#158 = ORIENTED_EDGE ( 'NONE', *, *, #235, .F. ) ;
#159 = CARTESIAN_POINT ( 'NONE',  ( 1.396592535537252750E-15, -4.898587196589410610E-17, 0.3999999999999998002 ) ) ;
#160 = CONICAL_SURFACE ( 'NONE', #131, 1.600000000000000977, 0.7853981633974512766 ) ;
#161 = PLANE ( 'NONE',  #46 ) ;
#162 = CARTESIAN_POINT ( 'NONE',  ( 2.793185071074506684E-13, -9.797174393178826052E-15, 80.00000000000000000 ) ) ;
#163 = CARTESIAN_POINT ( 'NONE',  ( 4.189777606611760026E-14, 2.125000000000003553, 12.00000000000000000 ) ) ;
#164 = AXIS2_PLACEMENT_3D ( 'NONE', #90, #32, #110 ) ;
#165 = CARTESIAN_POINT ( 'NONE',  ( 4.189777606611760026E-14, 2.125000000000003553, 12.00000000000000000 ) ) ;
#166 = EDGE_CURVE ( 'NONE', #239, #239, #149, .T. ) ;
#167 = UNCERTAINTY_MEASURE_WITH_UNIT (LENGTH_MEASURE( 1.000000000000000082E-05 ), #185, 'distance_accuracy_value', 'NONE');
#168 = PERSON_AND_ORGANIZATION_ROLE ( 'classification_officer' ) ;
#169 = CIRCLE ( 'NONE', #196, 2.000000000000000888 ) ;
#170 = APPROVAL_DATE_TIME ( #37, #233 ) ;
#171 = DIRECTION ( 'NONE',  ( 0.0000000000000000000, 1.000000000000000000, 0.0000000000000000000 ) ) ;
#172 = PERSON_AND_ORGANIZATION_ROLE ( 'design_supplier' ) ;
#173 = DIRECTION ( 'NONE',  ( -3.491481338843133355E-15, 1.224646799147353207E-16, -1.000000000000000000 ) ) ;
#174 = AXIS2_PLACEMENT_3D ( 'NONE', #22, #96, #171 ) ;
#175 = CARTESIAN_POINT ( 'NONE',  ( 4.189777606611760026E-14, -1.469576158976823947E-15, 12.00000000000000000 ) ) ;
#176 = PRODUCT_DEFINITION_SHAPE ( 'NONE', 'NONE',  #31 ) ;
#177 = DIRECTION ( 'NONE',  ( 0.0000000000000000000, 1.000000000000000000, 0.0000000000000000000 ) ) ;
#178 = APPLICATION_CONTEXT ( 'configuration controlled 3d designs of mechanical parts and assemblies' ) ;
#179 = CARTESIAN_POINT ( 'NONE',  ( 2.793185071074506684E-13, 1.199807826129472128E-32, 80.00000000000000000 ) ) ;
#180 = DIRECTION ( 'NONE',  ( 1.000000000000000000, 0.0000000000000000000, 0.0000000000000000000 ) ) ;
#181 = VERTEX_POINT ( 'NONE', #199 ) ;
#182 = CC_DESIGN_PERSON_AND_ORGANIZATION_ASSIGNMENT ( #189, #172, ( #12 ) ) ;
#183 = APPROVAL_STATUS ( 'not_yet_approved' ) ;
#184 = AXIS2_PLACEMENT_3D ( 'NONE', #175, #198, #118 ) ;
#185 =( LENGTH_UNIT ( ) NAMED_UNIT ( * ) SI_UNIT ( .MILLI., .METRE. ) );
#186 = ORIENTED_EDGE ( 'NONE', *, *, #147, .T. ) ;
#187 = CC_DESIGN_PERSON_AND_ORGANIZATION_ASSIGNMENT ( #219, #202, ( #38 ) ) ;
#188 = ORIENTED_EDGE ( 'NONE', *, *, #166, .F. ) ;
#189 = PERSON_AND_ORGANIZATION ( #153, #36 ) ;
#190 = EDGE_LOOP ( 'NONE', ( #93 ) ) ;
#191 = COORDINATED_UNIVERSAL_TIME_OFFSET ( 1, 0, .AHEAD. ) ;
#192 = DATE_TIME_ROLE ( 'creation_date' ) ;
#193 = CARTESIAN_POINT ( 'NONE',  ( 2.793185071074506684E-13, -9.797174393178826052E-15, 80.00000000000000000 ) ) ;
#194 = LOCAL_TIME ( 13, 56, 4.000000000000000000, #39 ) ;
#195 = DIRECTION ( 'NONE',  ( 4.275831445896958607E-31, 1.000000000000000000, 1.224646799147353207E-16 ) ) ;
#196 = AXIS2_PLACEMENT_3D ( 'NONE', #60, #101, #177 ) ;
#197 = FACE_OUTER_BOUND ( 'NONE', #17, .T. ) ;
#198 = DIRECTION ( 'NONE',  ( -3.491481338843133355E-15, 1.224646799147353207E-16, -1.000000000000000000 ) ) ;
#199 = CARTESIAN_POINT ( 'NONE',  ( 1.396592535537253737E-15, 2.125000000000004885, 0.4000000000000000777 ) ) ;
#200 = VERTEX_POINT ( 'NONE', #109 ) ;
#201 = ADVANCED_FACE ( 'NONE', ( #197 ), #105, .T. ) ;
#202 = PERSON_AND_ORGANIZATION_ROLE ( 'design_owner' ) ;
#203 = LOCAL_TIME ( 13, 56, 4.000000000000000000, #212 ) ;
#204 = EDGE_LOOP ( 'NONE', ( #158 ) ) ;
#205 = AXIS2_PLACEMENT_3D ( 'NONE', #104, #44, #195 ) ;
#206 = ADVANCED_FACE ( 'NONE', ( #213, #85 ), #127, .T. ) ;
#207 = EDGE_CURVE ( 'NONE', #181, #181, #99, .T. ) ;
#208 = APPROVAL_DATE_TIME ( #59, #34 ) ;
#209 = CALENDAR_DATE ( 2021, 2, 12 ) ;
#210 = PERSON_AND_ORGANIZATION_ROLE ( 'creator' ) ;
#211 = DIRECTION ( 'NONE',  ( -3.491481338843133355E-15, 1.224646799147353207E-16, -1.000000000000000000 ) ) ;
#212 = COORDINATED_UNIVERSAL_TIME_OFFSET ( 1, 0, .AHEAD. ) ;
#213 = FACE_OUTER_BOUND ( 'NONE', #61, .T. ) ;
#214 = LOCAL_TIME ( 13, 56, 4.000000000000000000, #5 ) ;
#215 = DIRECTION ( 'NONE',  ( 4.275831445896958607E-31, 1.000000000000000000, 1.224646799147353207E-16 ) ) ;
#216 = AXIS2_PLACEMENT_3D ( 'NONE', #179, #87, #215 ) ;
#217 = DIRECTION ( 'NONE',  ( -3.491481338843133355E-15, 1.224646799147353207E-16, -1.000000000000000000 ) ) ;
#218 = CARTESIAN_POINT ( 'NONE',  ( 4.189777606611760026E-14, 1.593494769078225761E-32, 12.00000000000000000 ) ) ;
#219 = PERSON_AND_ORGANIZATION ( #153, #36 ) ;
#220 = VERTEX_POINT ( 'NONE', #165 ) ;
#221 = ADVANCED_FACE ( 'NONE', ( #9, #142 ), #143, .T. ) ;
#222 = AXIS2_PLACEMENT_3D ( 'NONE', #145, #217, #42 ) ;
#223 = DATE_AND_TIME ( #41, #79 ) ;
#224 = CALENDAR_DATE ( 2021, 2, 12 ) ;
#225 = ORIENTED_EDGE ( 'NONE', *, *, #156, .T. ) ;
#226 = APPROVAL_PERSON_ORGANIZATION ( #18, #233, #229 ) ;
#227 = CARTESIAN_POINT ( 'NONE',  ( 4.189777606611760026E-14, 1.593494769078225761E-32, 12.00000000000000000 ) ) ;
#228 = EDGE_LOOP ( 'NONE', ( #188 ) ) ;
#229 = APPROVAL_ROLE ( '' ) ;
#230 = ORIENTED_EDGE ( 'NONE', *, *, #235, .T. ) ;
#231 = DIRECTION ( 'NONE',  ( -3.491481338843133355E-15, 1.224646799147353207E-16, -1.000000000000000000 ) ) ;
#232 = DIRECTION ( 'NONE',  ( -3.491481338843133355E-15, 1.224646799147353207E-16, -1.000000000000000000 ) ) ;
#233 = APPROVAL ( #155, 'UNSPECIFIED' ) ;
#234 = FACE_BOUND ( 'NONE', #19, .T. ) ;
#235 = EDGE_CURVE ( 'NONE', #66, #66, #25, .T. ) ;
#236 = CARTESIAN_POINT ( 'NONE',  ( 2.793185071074506684E-13, 1.599999999999991207, 80.00000000000000000 ) ) ;
#237 = CARTESIAN_POINT ( 'NONE',  ( 0.0000000000000000000, 0.0000000000000000000, 0.0000000000000000000 ) ) ;
#238 = AXIS2_PLACEMENT_3D ( 'NONE', #159, #232, #62 ) ;
#239 = VERTEX_POINT ( 'NONE', #236 ) ;
#240 = APPLICATION_PROTOCOL_DEFINITION ( 'international standard', 'config_control_design', 1994, #130 ) ;
#241 = AXIS2_PLACEMENT_3D ( 'NONE', #20, #173, #80 ) ;
#242 = ORIENTED_EDGE ( 'NONE', *, *, #166, .T. ) ;
#243 = APPROVAL ( #183, 'UNSPECIFIED' ) ;
ENDSEC;
END-ISO-10303-21;
