ISO-10303-21;
HEADER;
FILE_DESCRIPTION (( 'STEP AP203' ),
    '1' );
FILE_NAME ('321650.step',
    '2021-12-02T12:56:03',
    ( '' ),
    ( '' ),
    'SwSTEP 2.0',
    'SolidWorks 2019',
    '' );
FILE_SCHEMA (( 'CONFIG_CONTROL_DESIGN' ));
ENDSEC;

DATA;
#1 = APPROVAL ( #189, 'UNSPECIFIED' ) ;
#2 =( NAMED_UNIT ( * ) SI_UNIT ( $, .STERADIAN. ) SOLID_ANGLE_UNIT ( ) );
#3 = COORDINATED_UNIVERSAL_TIME_OFFSET ( 1, 0, .AHEAD. ) ;
#4 = DATE_TIME_ROLE ( 'classification_date' ) ;
#5 = EDGE_LOOP ( 'NONE', ( #132 ) ) ;
#6 = DIRECTION ( 'NONE',  ( -4.275831445896958607E-31, -1.000000000000000000, -1.224646799147353207E-16 ) ) ;
#7 = CC_DESIGN_PERSON_AND_ORGANIZATION_ASSIGNMENT ( #166, #92, ( #235 ) ) ;
#8 = CARTESIAN_POINT ( 'NONE',  ( 2.793185071074506684E-13, -9.797174393178826052E-15, 80.00000000000000000 ) ) ;
#9 = EDGE_LOOP ( 'NONE', ( #171 ) ) ;
#10 = DIRECTION ( 'NONE',  ( 4.275831445896958607E-31, 1.000000000000000000, 1.224646799147353207E-16 ) ) ;
#11 = DIRECTION ( 'NONE',  ( -3.491481338843133355E-15, 1.224646799147353207E-16, -1.000000000000000000 ) ) ;
#12 = EDGE_CURVE ( 'NONE', #22, #22, #226, .T. ) ;
#13 = ORIENTED_EDGE ( 'NONE', *, *, #230, .F. ) ;
#14 = AXIS2_PLACEMENT_3D ( 'NONE', #216, #181, #137 ) ;
#15 = FACE_OUTER_BOUND ( 'NONE', #5, .T. ) ;
#16 = VERTEX_POINT ( 'NONE', #142 ) ;
#17 = CONICAL_SURFACE ( 'NONE', #214, 1.720000000000003970, 0.7853981633974502774 ) ;
#18 = DIRECTION ( 'NONE',  ( 1.000000000000000000, 0.0000000000000000000, 0.0000000000000000000 ) ) ;
#19 = CC_DESIGN_DATE_AND_TIME_ASSIGNMENT ( #111, #227, ( #159 ) ) ;
#20 = VERTEX_POINT ( 'NONE', #145 ) ;
#21 = AXIS2_PLACEMENT_3D ( 'NONE', #172, #69, #25 ) ;
#22 = VERTEX_POINT ( 'NONE', #163 ) ;
#23 = CALENDAR_DATE ( 2021, 2, 12 ) ;
#24 = CONICAL_SURFACE ( 'NONE', #168, 2.120000000000004992, 0.5235987755982994818 ) ;
#25 = DIRECTION ( 'NONE',  ( -4.275831445896958607E-31, -1.000000000000000000, -1.224646799147353207E-16 ) ) ;
#26 = LOCAL_TIME ( 13, 56, 3.000000000000000000, #3 ) ;
#27 = DIRECTION ( 'NONE',  ( 4.275831445896958607E-31, 1.000000000000000000, 1.224646799147353207E-16 ) ) ;
#28 = DIRECTION ( 'NONE',  ( -3.491481338843133355E-15, 1.224646799147353207E-16, -1.000000000000000000 ) ) ;
#29 = FACE_OUTER_BOUND ( 'NONE', #9, .T. ) ;
#30 = ORIENTED_EDGE ( 'NONE', *, *, #209, .T. ) ;
#31 = FACE_OUTER_BOUND ( 'NONE', #118, .T. ) ;
#32 = LOCAL_TIME ( 13, 56, 3.000000000000000000, #70 ) ;
#33 = PERSON_AND_ORGANIZATION ( #217, #183 ) ;
#34 = EDGE_CURVE ( 'NONE', #91, #91, #149, .T. ) ;
#35 = APPLICATION_PROTOCOL_DEFINITION ( 'international standard', 'config_control_design', 1994, #95 ) ;
#36 = SECURITY_CLASSIFICATION_LEVEL ( 'unclassified' ) ;
#37 = CALENDAR_DATE ( 2021, 2, 12 ) ;
#38 = EDGE_LOOP ( 'NONE', ( #210 ) ) ;
#39 = APPROVAL_PERSON_ORGANIZATION ( #129, #141, #71 ) ;
#40 = DIRECTION ( 'NONE',  ( -3.491481338843133355E-15, 1.224646799147353207E-16, -1.000000000000000000 ) ) ;
#41 =( GEOMETRIC_REPRESENTATION_CONTEXT ( 3 ) GLOBAL_UNCERTAINTY_ASSIGNED_CONTEXT ( ( #127 ) ) GLOBAL_UNIT_ASSIGNED_CONTEXT ( ( #48, #182, #2 ) ) REPRESENTATION_CONTEXT ( 'NONE', 'WORKASPACE' ) );
#42 = CARTESIAN_POINT ( 'NONE',  ( 4.189777606611760026E-14, -1.469576158976823947E-15, 12.00000000000000000 ) ) ;
#43 = ADVANCED_FACE ( 'NONE', ( #29 ), #231, .T. ) ;
#44 = CARTESIAN_POINT ( 'NONE',  ( -7.354430086942785479E-31, 2.579586826178400778E-32, -2.106392494533452466E-16 ) ) ;
#45 = CIRCLE ( 'NONE', #239, 1.999999999999991784 ) ;
#46 = DIRECTION ( 'NONE',  ( -3.491481338843133355E-15, 1.224646799147353207E-16, -1.000000000000000000 ) ) ;
#47 = DIRECTION ( 'NONE',  ( 3.491481338843133355E-15, -1.224646799147353207E-16, 1.000000000000000000 ) ) ;
#48 =( LENGTH_UNIT ( ) NAMED_UNIT ( * ) SI_UNIT ( .MILLI., .METRE. ) );
#49 = PERSON_AND_ORGANIZATION_ROLE ( 'design_owner' ) ;
#50 = DATE_AND_TIME ( #23, #123 ) ;
#51 = CARTESIAN_POINT ( 'NONE',  ( 0.0000000000000000000, 0.0000000000000000000, 0.0000000000000000000 ) ) ;
#52 = PERSON_AND_ORGANIZATION ( #217, #183 ) ;
#53 = AXIS2_PLACEMENT_3D ( 'NONE', #98, #78, #66 ) ;
#54 = APPROVAL_STATUS ( 'not_yet_approved' ) ;
#55 = CC_DESIGN_SECURITY_CLASSIFICATION ( #229, ( #235 ) ) ;
#56 = LOCAL_TIME ( 13, 56, 3.000000000000000000, #208 ) ;
#57 = PERSON_AND_ORGANIZATION_ROLE ( 'classification_officer' ) ;
#58 = AXIS2_PLACEMENT_3D ( 'NONE', #192, #234, #27 ) ;
#59 = PRODUCT_RELATED_PRODUCT_CATEGORY ( 'detail', '', ( #151 ) ) ;
#60 = ADVANCED_BREP_SHAPE_REPRESENTATION ( '321650', ( #102, #188, #202 ), #41 ) ;
#61 = PRODUCT_DEFINITION_SHAPE ( 'NONE', 'NONE',  #159 ) ;
#62 = PLANE ( 'NONE',  #58 ) ;
#63 = PLANE ( 'NONE',  #156 ) ;
#64 = CIRCLE ( 'NONE', #148, 2.120000000000005436 ) ;
#65 = ADVANCED_FACE ( 'NONE', ( #152, #100 ), #167, .T. ) ;
#66 = DIRECTION ( 'NONE',  ( 0.0000000000000000000, 1.000000000000000000, 0.0000000000000000000 ) ) ;
#67 = CARTESIAN_POINT ( 'NONE',  ( 1.396592535537253145E-15, -4.898587196589411843E-17, 0.3999999999999999112 ) ) ;
#68 = EDGE_LOOP ( 'NONE', ( #104 ) ) ;
#69 = DIRECTION ( 'NONE',  ( 3.491481338843133355E-15, -1.224646799147353207E-16, 1.000000000000000000 ) ) ;
#70 = COORDINATED_UNIVERSAL_TIME_OFFSET ( 1, 0, .AHEAD. ) ;
#71 = APPROVAL_ROLE ( '' ) ;
#72 = EDGE_LOOP ( 'NONE', ( #211 ) ) ;
#73 = PERSON_AND_ORGANIZATION_ROLE ( 'creator' ) ;
#74 = APPROVAL_ROLE ( '' ) ;
#75 = CC_DESIGN_DATE_AND_TIME_ASSIGNMENT ( #126, #4, ( #229 ) ) ;
#76 = AXIS2_PLACEMENT_3D ( 'NONE', #42, #154, #133 ) ;
#77 = ADVANCED_FACE ( 'NONE', ( #195, #101 ), #24, .T. ) ;
#78 = DIRECTION ( 'NONE',  ( -3.491481338843133355E-15, 1.224646799147353207E-16, -1.000000000000000000 ) ) ;
#79 = CLOSED_SHELL ( 'NONE', ( #131, #43, #173, #203 ) ) ;
#80 = FACE_OUTER_BOUND ( 'NONE', #150, .T. ) ;
#81 = EDGE_LOOP ( 'NONE', ( #97 ) ) ;
#82 = CYLINDRICAL_SURFACE ( 'NONE', #197, 2.120000000000005436 ) ;
#83 = CARTESIAN_POINT ( 'NONE',  ( 4.189777606611760026E-14, -1.469576158976823947E-15, 12.00000000000000000 ) ) ;
#84 = ORIENTED_EDGE ( 'NONE', *, *, #130, .T. ) ;
#85 = DIRECTION ( 'NONE',  ( -3.491481338843133355E-15, 1.224646799147353207E-16, -1.000000000000000000 ) ) ;
#86 = LOCAL_TIME ( 13, 56, 3.000000000000000000, #110 ) ;
#87 = CC_DESIGN_APPROVAL ( #1, ( #235 ) ) ;
#88 = CARTESIAN_POINT ( 'NONE',  ( -8.552847072295026068E-47, 1.720000000000003970, 0.0000000000000000000 ) ) ;
#89 = VERTEX_POINT ( 'NONE', #106 ) ;
#90 = APPROVAL_DATE_TIME ( #186, #115 ) ;
#91 = VERTEX_POINT ( 'NONE', #122 ) ;
#92 = PERSON_AND_ORGANIZATION_ROLE ( 'design_supplier' ) ;
#93 = CC_DESIGN_APPROVAL ( #115, ( #159 ) ) ;
#94 = AXIS2_PLACEMENT_3D ( 'NONE', #8, #28, #215 ) ;
#95 = APPLICATION_CONTEXT ( 'configuration controlled 3d designs of mechanical parts and assemblies' ) ;
#96 = EDGE_CURVE ( 'NONE', #16, #16, #45, .T. ) ;
#97 = ORIENTED_EDGE ( 'NONE', *, *, #177, .T. ) ;
#98 = CARTESIAN_POINT ( 'NONE',  ( 2.779219145719134403E-13, -9.748188521212932624E-15, 79.60000000000000853 ) ) ;
#99 = ORIENTED_EDGE ( 'NONE', *, *, #34, .T. ) ;
#100 = FACE_BOUND ( 'NONE', #180, .T. ) ;
#101 = FACE_OUTER_BOUND ( 'NONE', #179, .T. ) ;
#102 = MANIFOLD_SOLID_BREP ( 'Corps-Déplacer/Copier1[1]', #221 ) ;
#103 = DIRECTION ( 'NONE',  ( 0.0000000000000000000, 1.000000000000000000, 0.0000000000000000000 ) ) ;
#104 = ORIENTED_EDGE ( 'NONE', *, *, #230, .T. ) ;
#105 = CARTESIAN_POINT ( 'NONE',  ( 0.0000000000000000000, 0.0000000000000000000, 0.0000000000000000000 ) ) ;
#106 = CARTESIAN_POINT ( 'NONE',  ( 1.396592535537254131E-15, 2.120000000000005436, 0.4000000000000001887 ) ) ;
#107 = CC_DESIGN_PERSON_AND_ORGANIZATION_ASSIGNMENT ( #206, #73, ( #235 ) ) ;
#108 = CALENDAR_DATE ( 2021, 2, 12 ) ;
#109 = ORIENTED_EDGE ( 'NONE', *, *, #96, .F. ) ;
#110 = COORDINATED_UNIVERSAL_TIME_OFFSET ( 1, 0, .AHEAD. ) ;
#111 = DATE_AND_TIME ( #37, #56 ) ;
#112 = ADVANCED_FACE ( 'NONE', ( #15 ), #63, .F. ) ;
#113 = EDGE_LOOP ( 'NONE', ( #13 ) ) ;
#114 = PLANE ( 'NONE',  #21 ) ;
#115 = APPROVAL ( #184, 'UNSPECIFIED' ) ;
#116 = CYLINDRICAL_SURFACE ( 'NONE', #191, 1.999999999999996669 ) ;
#117 = ADVANCED_FACE ( 'NONE', ( #80 ), #114, .F. ) ;
#118 = EDGE_LOOP ( 'NONE', ( #84 ) ) ;
#119 = FACE_OUTER_BOUND ( 'NONE', #68, .T. ) ;
#120 = DIRECTION ( 'NONE',  ( -3.491481338843133355E-15, 1.224646799147353207E-16, -1.000000000000000000 ) ) ;
#121 = DIRECTION ( 'NONE',  ( 4.542287604686865511E-31, 1.000000000000000000, 1.278540297742336897E-16 ) ) ;
#122 = CARTESIAN_POINT ( 'NONE',  ( 4.189777606611760026E-14, 2.120000000000003659, 12.00000000000000000 ) ) ;
#123 = LOCAL_TIME ( 13, 56, 3.000000000000000000, #124 ) ;
#124 = COORDINATED_UNIVERSAL_TIME_OFFSET ( 1, 0, .AHEAD. ) ;
#125 = CIRCLE ( 'NONE', #241, 1.720000000000003970 ) ;
#126 = DATE_AND_TIME ( #187, #86 ) ;
#127 = UNCERTAINTY_MEASURE_WITH_UNIT (LENGTH_MEASURE( 1.000000000000000082E-05 ), #48, 'distance_accuracy_value', 'NONE');
#128 = APPROVAL_PERSON_ORGANIZATION ( #52, #1, #74 ) ;
#129 = PERSON_AND_ORGANIZATION ( #217, #183 ) ;
#130 = EDGE_CURVE ( 'NONE', #158, #158, #185, .T. ) ;
#131 = ADVANCED_FACE ( 'NONE', ( #193, #139 ), #82, .T. ) ;
#132 = ORIENTED_EDGE ( 'NONE', *, *, #12, .F. ) ;
#133 = DIRECTION ( 'NONE',  ( 0.0000000000000000000, 1.000000000000000000, 0.0000000000000000000 ) ) ;
#134 = DIRECTION ( 'NONE',  ( 4.275831445896957731E-31, 1.000000000000000000, 1.224646799147353207E-16 ) ) ;
#135 = APPROVAL_PERSON_ORGANIZATION ( #33, #115, #224 ) ;
#136 = AXIS2_PLACEMENT_3D ( 'NONE', #138, #213, #6 ) ;
#137 = DIRECTION ( 'NONE',  ( 0.0000000000000000000, 1.000000000000000000, 0.0000000000000000000 ) ) ;
#138 = CARTESIAN_POINT ( 'NONE',  ( 4.189777606611760026E-14, 1.589745369621570816E-32, 12.00000000000000000 ) ) ;
#139 = FACE_OUTER_BOUND ( 'NONE', #72, .T. ) ;
#140 = MECHANICAL_CONTEXT ( 'NONE', #95, 'mechanical' ) ;
#141 = APPROVAL ( #54, 'UNSPECIFIED' ) ;
#142 = CARTESIAN_POINT ( 'NONE',  ( 4.262346683482427072E-14, 1.999999999999990452, 12.20784609690828759 ) ) ;
#143 = ORIENTED_EDGE ( 'NONE', *, *, #34, .F. ) ;
#144 = APPROVAL_DATE_TIME ( #164, #1 ) ;
#145 = CARTESIAN_POINT ( 'NONE',  ( 4.189777606611760026E-14, 2.120000000000003659, 12.00000000000000000 ) ) ;
#146 = PERSON_AND_ORGANIZATION ( #217, #183 ) ;
#147 = ORIENTED_EDGE ( 'NONE', *, *, #12, .T. ) ;
#148 = AXIS2_PLACEMENT_3D ( 'NONE', #67, #120, #121 ) ;
#149 = CIRCLE ( 'NONE', #76, 2.120000000000004992 ) ;
#150 = EDGE_LOOP ( 'NONE', ( #99 ) ) ;
#151 = PRODUCT ( '321650', '321650', '', ( #140 ) ) ;
#152 = FACE_OUTER_BOUND ( 'NONE', #38, .T. ) ;
#153 = DIRECTION ( 'NONE',  ( -3.491481338843133355E-15, 1.224646799147353207E-16, -1.000000000000000000 ) ) ;
#154 = DIRECTION ( 'NONE',  ( -3.491481338843133355E-15, 1.224646799147353207E-16, -1.000000000000000000 ) ) ;
#155 = DIRECTION ( 'NONE',  ( 0.0000000000000000000, 1.000000000000000000, 0.0000000000000000000 ) ) ;
#156 = AXIS2_PLACEMENT_3D ( 'NONE', #240, #40, #10 ) ;
#157 = FACE_BOUND ( 'NONE', #113, .T. ) ;
#158 = VERTEX_POINT ( 'NONE', #161 ) ;
#159 = PRODUCT_DEFINITION ( 'UNKNOWN', '', #235, #170 ) ;
#160 = AXIS2_PLACEMENT_3D ( 'NONE', #165, #243, #103 ) ;
#161 = CARTESIAN_POINT ( 'NONE',  ( 2.779219145719134403E-13, 1.999999999999991340, 79.60000000000000853 ) ) ;
#162 = CALENDAR_DATE ( 2021, 2, 12 ) ;
#163 = CARTESIAN_POINT ( 'NONE',  ( 2.793185071074506684E-13, 1.599999999999991207, 80.00000000000000000 ) ) ;
#164 = DATE_AND_TIME ( #162, #26 ) ;
#165 = CARTESIAN_POINT ( 'NONE',  ( 2.793185071074506684E-13, -9.797174393178826052E-15, 80.00000000000000000 ) ) ;
#166 = PERSON_AND_ORGANIZATION ( #217, #183 ) ;
#167 = CONICAL_SURFACE ( 'NONE', #94, 1.600000000000000977, 0.7853981633974512766 ) ;
#168 = AXIS2_PLACEMENT_3D ( 'NONE', #83, #11, #218 ) ;
#169 = ORIENTED_EDGE ( 'NONE', *, *, #96, .T. ) ;
#170 = DESIGN_CONTEXT ( 'detailed design', #212, 'design' ) ;
#171 = ORIENTED_EDGE ( 'NONE', *, *, #177, .F. ) ;
#172 = CARTESIAN_POINT ( 'NONE',  ( 4.189777606611760026E-14, 1.589745369621570816E-32, 12.00000000000000000 ) ) ;
#173 = ADVANCED_FACE ( 'NONE', ( #119 ), #62, .T. ) ;
#174 = EDGE_LOOP ( 'NONE', ( #109 ) ) ;
#175 = CARTESIAN_POINT ( 'NONE',  ( -7.354430086942785479E-31, 2.579586826178400778E-32, -2.106392494533452466E-16 ) ) ;
#176 = CARTESIAN_POINT ( 'NONE',  ( 4.262346683482427072E-14, -1.495029964706224417E-15, 12.20784609690828759 ) ) ;
#177 = EDGE_CURVE ( 'NONE', #20, #20, #237, .T. ) ;
#178 = DIRECTION ( 'NONE',  ( 4.275831445896959482E-31, 1.000000000000000000, 1.224646799147353207E-16 ) ) ;
#179 = EDGE_LOOP ( 'NONE', ( #143 ) ) ;
#180 = EDGE_LOOP ( 'NONE', ( #147 ) ) ;
#181 = DIRECTION ( 'NONE',  ( -3.491481338843133355E-15, 1.224646799147353207E-16, -1.000000000000000000 ) ) ;
#182 =( NAMED_UNIT ( * ) PLANE_ANGLE_UNIT ( ) SI_UNIT ( $, .RADIAN. ) );
#183 = ORGANIZATION ( 'UNSPECIFIED', 'UNSPECIFIED', '' ) ;
#184 = APPROVAL_STATUS ( 'not_yet_approved' ) ;
#185 = CIRCLE ( 'NONE', #53, 2.000000000000000888 ) ;
#186 = DATE_AND_TIME ( #108, #32 ) ;
#187 = CALENDAR_DATE ( 2021, 2, 12 ) ;
#188 = MANIFOLD_SOLID_BREP ( 'Corps-Déplacer/Copier1[2]', #79 ) ;
#189 = APPROVAL_STATUS ( 'not_yet_approved' ) ;
#190 = CC_DESIGN_PERSON_AND_ORGANIZATION_ASSIGNMENT ( #225, #57, ( #229 ) ) ;
#191 = AXIS2_PLACEMENT_3D ( 'NONE', #105, #198, #220 ) ;
#192 = CARTESIAN_POINT ( 'NONE',  ( -3.677215043471392739E-31, 1.289793413089200389E-32, -1.053196247266726233E-16 ) ) ;
#193 = FACE_OUTER_BOUND ( 'NONE', #81, .T. ) ;
#194 = CC_DESIGN_PERSON_AND_ORGANIZATION_ASSIGNMENT ( #222, #49, ( #151 ) ) ;
#195 = FACE_BOUND ( 'NONE', #228, .T. ) ;
#196 = FACE_OUTER_BOUND ( 'NONE', #174, .T. ) ;
#197 = AXIS2_PLACEMENT_3D ( 'NONE', #236, #85, #178 ) ;
#198 = DIRECTION ( 'NONE',  ( -3.491481338843133355E-15, 1.224646799147353207E-16, -1.000000000000000000 ) ) ;
#199 = EDGE_LOOP ( 'NONE', ( #30 ) ) ;
#200 = APPLICATION_PROTOCOL_DEFINITION ( 'international standard', 'config_control_design', 1994, #212 ) ;
#201 = SHAPE_DEFINITION_REPRESENTATION ( #61, #60 ) ;
#202 = AXIS2_PLACEMENT_3D ( 'NONE', #51, #204, #18 ) ;
#203 = ADVANCED_FACE ( 'NONE', ( #238, #157 ), #17, .T. ) ;
#204 = DIRECTION ( 'NONE',  ( 0.0000000000000000000, 0.0000000000000000000, 1.000000000000000000 ) ) ;
#205 = PERSON_AND_ORGANIZATION_ROLE ( 'creator' ) ;
#206 = PERSON_AND_ORGANIZATION ( #217, #183 ) ;
#207 = CC_DESIGN_PERSON_AND_ORGANIZATION_ASSIGNMENT ( #146, #205, ( #159 ) ) ;
#208 = COORDINATED_UNIVERSAL_TIME_OFFSET ( 1, 0, .AHEAD. ) ;
#209 = EDGE_CURVE ( 'NONE', #89, #89, #64, .T. ) ;
#210 = ORIENTED_EDGE ( 'NONE', *, *, #130, .F. ) ;
#211 = ORIENTED_EDGE ( 'NONE', *, *, #209, .F. ) ;
#212 = APPLICATION_CONTEXT ( 'configuration controlled 3d designs of mechanical parts and assemblies' ) ;
#213 = DIRECTION ( 'NONE',  ( 3.491481338843133355E-15, -1.224646799147353207E-16, 1.000000000000000000 ) ) ;
#214 = AXIS2_PLACEMENT_3D ( 'NONE', #44, #47, #219 ) ;
#215 = DIRECTION ( 'NONE',  ( 0.0000000000000000000, 1.000000000000000000, 0.0000000000000000000 ) ) ;
#216 = CARTESIAN_POINT ( 'NONE',  ( 4.189777606611760026E-14, -1.469576158976823947E-15, 12.00000000000000000 ) ) ;
#217 = PERSON ( 'UNSPECIFIED', 'UNSPECIFIED', 'UNSPECIFIED', ('UNSPECIFIED'), ('UNSPECIFIED'), ('UNSPECIFIED') ) ;
#218 = DIRECTION ( 'NONE',  ( 0.0000000000000000000, 1.000000000000000000, 0.0000000000000000000 ) ) ;
#219 = DIRECTION ( 'NONE',  ( -4.275831445896957731E-31, -1.000000000000000000, -1.224646799147353207E-16 ) ) ;
#220 = DIRECTION ( 'NONE',  ( 4.275831445896958607E-31, 1.000000000000000000, 1.224646799147353207E-16 ) ) ;
#221 = CLOSED_SHELL ( 'NONE', ( #117, #77, #233, #65, #112 ) ) ;
#222 = PERSON_AND_ORGANIZATION ( #217, #183 ) ;
#223 = APPROVAL_DATE_TIME ( #50, #141 ) ;
#224 = APPROVAL_ROLE ( '' ) ;
#225 = PERSON_AND_ORGANIZATION ( #217, #183 ) ;
#226 = CIRCLE ( 'NONE', #160, 1.600000000000000977 ) ;
#227 = DATE_TIME_ROLE ( 'creation_date' ) ;
#228 = EDGE_LOOP ( 'NONE', ( #169 ) ) ;
#229 = SECURITY_CLASSIFICATION ( '', '', #36 ) ;
#230 = EDGE_CURVE ( 'NONE', #242, #242, #125, .T. ) ;
#231 = PLANE ( 'NONE',  #136 ) ;
#232 = CC_DESIGN_APPROVAL ( #141, ( #229 ) ) ;
#233 = ADVANCED_FACE ( 'NONE', ( #196, #31 ), #116, .T. ) ;
#234 = DIRECTION ( 'NONE',  ( -3.491481338843133355E-15, 1.224646799147353207E-16, -1.000000000000000000 ) ) ;
#235 = PRODUCT_DEFINITION_FORMATION_WITH_SPECIFIED_SOURCE ( 'ANY', '', #151, .NOT_KNOWN. ) ;
#236 = CARTESIAN_POINT ( 'NONE',  ( 0.0000000000000000000, 0.0000000000000000000, 0.0000000000000000000 ) ) ;
#237 = CIRCLE ( 'NONE', #14, 2.120000000000004992 ) ;
#238 = FACE_OUTER_BOUND ( 'NONE', #199, .T. ) ;
#239 = AXIS2_PLACEMENT_3D ( 'NONE', #176, #46, #155 ) ;
#240 = CARTESIAN_POINT ( 'NONE',  ( 2.793185071074506684E-13, 1.199807826129472128E-32, 80.00000000000000000 ) ) ;
#241 = AXIS2_PLACEMENT_3D ( 'NONE', #175, #153, #134 ) ;
#242 = VERTEX_POINT ( 'NONE', #88 ) ;
#243 = DIRECTION ( 'NONE',  ( -3.491481338843133355E-15, 1.224646799147353207E-16, -1.000000000000000000 ) ) ;
ENDSEC;
END-ISO-10303-21;
