ISO-10303-21;
HEADER;
FILE_DESCRIPTION (( 'STEP AP203' ),
    '1' );
FILE_NAME ('321649.step',
    '2021-12-02T12:56:02',
    ( '' ),
    ( '' ),
    'SwSTEP 2.0',
    'SolidWorks 2019',
    '' );
FILE_SCHEMA (( 'CONFIG_CONTROL_DESIGN' ));
ENDSEC;

DATA;
#1 = CARTESIAN_POINT ( 'NONE',  ( 2.793185071074506684E-13, -9.797174393178826052E-15, 80.00000000000000000 ) ) ;
#2 = CALENDAR_DATE ( 2021, 2, 12 ) ;
#3 = ADVANCED_FACE ( 'NONE', ( #49 ), #15, .F. ) ;
#4 = CC_DESIGN_APPROVAL ( #50, ( #192 ) ) ;
#5 = CARTESIAN_POINT ( 'NONE',  ( 2.779219145719134403E-13, 1.999999999999991340, 79.60000000000000853 ) ) ;
#6 = MECHANICAL_CONTEXT ( 'NONE', #137, 'mechanical' ) ;
#7 = FACE_OUTER_BOUND ( 'NONE', #11, .T. ) ;
#8 = ORIENTED_EDGE ( 'NONE', *, *, #141, .T. ) ;
#9 = CLOSED_SHELL ( 'NONE', ( #172, #12, #20, #160 ) ) ;
#10 = PLANE ( 'NONE',  #62 ) ;
#11 = EDGE_LOOP ( 'NONE', ( #140 ) ) ;
#12 = ADVANCED_FACE ( 'NONE', ( #130 ), #103, .T. ) ;
#13 = FACE_BOUND ( 'NONE', #48, .T. ) ;
#14 = APPROVAL_PERSON_ORGANIZATION ( #229, #203, #38 ) ;
#15 = PLANE ( 'NONE',  #91 ) ;
#16 = CALENDAR_DATE ( 2021, 2, 12 ) ;
#17 = CARTESIAN_POINT ( 'NONE',  ( 2.793185071074506684E-13, -9.797174393178826052E-15, 80.00000000000000000 ) ) ;
#18 = DATE_TIME_ROLE ( 'creation_date' ) ;
#19 = DIRECTION ( 'NONE',  ( -4.275831445896959482E-31, -1.000000000000000000, -1.224646799147353207E-16 ) ) ;
#20 = ADVANCED_FACE ( 'NONE', ( #82 ), #143, .T. ) ;
#21 = CARTESIAN_POINT ( 'NONE',  ( 0.0000000000000000000, 0.0000000000000000000, 0.0000000000000000000 ) ) ;
#22 =( NAMED_UNIT ( * ) PLANE_ANGLE_UNIT ( ) SI_UNIT ( $, .RADIAN. ) );
#23 = AXIS2_PLACEMENT_3D ( 'NONE', #222, #227, #148 ) ;
#24 = ADVANCED_BREP_SHAPE_REPRESENTATION ( '321649', ( #105, #189, #232 ), #84 ) ;
#25 = ORGANIZATION ( 'UNSPECIFIED', 'UNSPECIFIED', '' ) ;
#26 = UNCERTAINTY_MEASURE_WITH_UNIT (LENGTH_MEASURE( 1.000000000000000082E-05 ), #78, 'distance_accuracy_value', 'NONE');
#27 = ORIENTED_EDGE ( 'NONE', *, *, #196, .T. ) ;
#28 = CYLINDRICAL_SURFACE ( 'NONE', #144, 2.115000000000005098 ) ;
#29 = DIRECTION ( 'NONE',  ( 0.0000000000000000000, 1.000000000000000000, 0.0000000000000000000 ) ) ;
#30 = DIRECTION ( 'NONE',  ( -3.491481338843133355E-15, 1.224646799147353207E-16, -1.000000000000000000 ) ) ;
#31 = ORIENTED_EDGE ( 'NONE', *, *, #76, .T. ) ;
#32 = DIRECTION ( 'NONE',  ( -3.491481338843133355E-15, 1.224646799147353207E-16, -1.000000000000000000 ) ) ;
#33 = DIRECTION ( 'NONE',  ( 4.275831445896958607E-31, 1.000000000000000000, 1.224646799147353207E-16 ) ) ;
#34 = DATE_TIME_ROLE ( 'classification_date' ) ;
#35 = SECURITY_CLASSIFICATION ( '', '', #243 ) ;
#36 = DIRECTION ( 'NONE',  ( -4.275831445896958607E-31, -1.000000000000000000, -1.224646799147353207E-16 ) ) ;
#37 = CC_DESIGN_DATE_AND_TIME_ASSIGNMENT ( #57, #18, ( #156 ) ) ;
#38 = APPROVAL_ROLE ( '' ) ;
#39 = VERTEX_POINT ( 'NONE', #53 ) ;
#40 = DATE_AND_TIME ( #16, #157 ) ;
#41 = VERTEX_POINT ( 'NONE', #116 ) ;
#42 = AXIS2_PLACEMENT_3D ( 'NONE', #123, #124, #111 ) ;
#43 = DIRECTION ( 'NONE',  ( 3.491481338843133355E-15, -1.224646799147353207E-16, 1.000000000000000000 ) ) ;
#44 = LOCAL_TIME ( 13, 56, 2.000000000000000000, #186 ) ;
#45 = ORIENTED_EDGE ( 'NONE', *, *, #141, .F. ) ;
#46 = DIRECTION ( 'NONE',  ( -3.491481338843133355E-15, 1.224646799147353207E-16, -1.000000000000000000 ) ) ;
#47 = LOCAL_TIME ( 13, 56, 2.000000000000000000, #201 ) ;
#48 = EDGE_LOOP ( 'NONE', ( #8 ) ) ;
#49 = FACE_OUTER_BOUND ( 'NONE', #177, .T. ) ;
#50 = APPROVAL ( #168, 'UNSPECIFIED' ) ;
#51 = CC_DESIGN_APPROVAL ( #58, ( #35 ) ) ;
#52 = DIRECTION ( 'NONE',  ( 0.0000000000000000000, 1.000000000000000000, 0.0000000000000000000 ) ) ;
#53 = CARTESIAN_POINT ( 'NONE',  ( 1.396592535537253737E-15, 2.115000000000005098, 0.4000000000000000777 ) ) ;
#54 = ORIENTED_EDGE ( 'NONE', *, *, #76, .F. ) ;
#55 = PERSON_AND_ORGANIZATION_ROLE ( 'creator' ) ;
#56 = EDGE_LOOP ( 'NONE', ( #219 ) ) ;
#57 = DATE_AND_TIME ( #70, #212 ) ;
#58 = APPROVAL ( #184, 'UNSPECIFIED' ) ;
#59 = APPROVAL_DATE_TIME ( #154, #203 ) ;
#60 = CIRCLE ( 'NONE', #117, 2.115000000000005098 ) ;
#61 = EDGE_CURVE ( 'NONE', #223, #223, #181, .T. ) ;
#62 = AXIS2_PLACEMENT_3D ( 'NONE', #127, #204, #36 ) ;
#63 = CC_DESIGN_PERSON_AND_ORGANIZATION_ASSIGNMENT ( #205, #128, ( #192 ) ) ;
#64 = EDGE_LOOP ( 'NONE', ( #242 ) ) ;
#65 = DIRECTION ( 'NONE',  ( -3.491481338843133355E-15, 1.224646799147353207E-16, -1.000000000000000000 ) ) ;
#66 = CIRCLE ( 'NONE', #209, 2.115000000000005098 ) ;
#67 = CARTESIAN_POINT ( 'NONE',  ( 8.552847072295026068E-47, 1.715000000000003633, 0.0000000000000000000 ) ) ;
#68 = DIRECTION ( 'NONE',  ( -3.491481338843133355E-15, 1.224646799147353207E-16, -1.000000000000000000 ) ) ;
#69 = DATE_AND_TIME ( #2, #44 ) ;
#70 = CALENDAR_DATE ( 2021, 2, 12 ) ;
#71 = ORIENTED_EDGE ( 'NONE', *, *, #75, .T. ) ;
#72 = AXIS2_PLACEMENT_3D ( 'NONE', #200, #65, #197 ) ;
#73 = CALENDAR_DATE ( 2021, 2, 12 ) ;
#74 = VERTEX_POINT ( 'NONE', #126 ) ;
#75 = EDGE_CURVE ( 'NONE', #39, #39, #239, .T. ) ;
#76 = EDGE_CURVE ( 'NONE', #114, #114, #188, .T. ) ;
#77 = DIRECTION ( 'NONE',  ( 0.0000000000000000000, 0.0000000000000000000, 1.000000000000000000 ) ) ;
#78 =( LENGTH_UNIT ( ) NAMED_UNIT ( * ) SI_UNIT ( .MILLI., .METRE. ) );
#79 = CARTESIAN_POINT ( 'NONE',  ( -7.333050929713299013E-31, 2.572088027265091435E-32, -2.100269260537715098E-16 ) ) ;
#80 = CONICAL_SURFACE ( 'NONE', #211, 1.600000000000000977, 0.7853981633974512766 ) ;
#81 = DIRECTION ( 'NONE',  ( 4.275831445896958607E-31, 1.000000000000000000, 1.224646799147353207E-16 ) ) ;
#82 = FACE_OUTER_BOUND ( 'NONE', #195, .T. ) ;
#83 = DIRECTION ( 'NONE',  ( 0.0000000000000000000, 1.000000000000000000, 0.0000000000000000000 ) ) ;
#84 =( GEOMETRIC_REPRESENTATION_CONTEXT ( 3 ) GLOBAL_UNCERTAINTY_ASSIGNED_CONTEXT ( ( #26 ) ) GLOBAL_UNIT_ASSIGNED_CONTEXT ( ( #78, #22, #213 ) ) REPRESENTATION_CONTEXT ( 'NONE', 'WORKASPACE' ) );
#85 = FACE_BOUND ( 'NONE', #64, .T. ) ;
#86 = PERSON_AND_ORGANIZATION ( #173, #25 ) ;
#87 = APPROVAL_STATUS ( 'not_yet_approved' ) ;
#88 = CARTESIAN_POINT ( 'NONE',  ( 4.259322971946148937E-14, -1.493969389467499570E-15, 12.19918584287044361 ) ) ;
#89 = PERSON_AND_ORGANIZATION ( #173, #25 ) ;
#90 = CONICAL_SURFACE ( 'NONE', #23, 2.115000000000005098, 0.5235987755983003700 ) ;
#91 = AXIS2_PLACEMENT_3D ( 'NONE', #101, #166, #81 ) ;
#92 = ADVANCED_FACE ( 'NONE', ( #162, #13 ), #80, .T. ) ;
#93 = CARTESIAN_POINT ( 'NONE',  ( 4.189777606611760026E-14, 2.115000000000003766, 12.00000000000000000 ) ) ;
#94 = CC_DESIGN_PERSON_AND_ORGANIZATION_ASSIGNMENT ( #115, #112, ( #35 ) ) ;
#95 = AXIS2_PLACEMENT_3D ( 'NONE', #208, #241, #33 ) ;
#96 = DIRECTION ( 'NONE',  ( 0.0000000000000000000, 1.000000000000000000, 0.0000000000000000000 ) ) ;
#97 = DIRECTION ( 'NONE',  ( 4.275831445896958607E-31, 1.000000000000000000, 1.224646799147353207E-16 ) ) ;
#98 = ADVANCED_FACE ( 'NONE', ( #85, #236 ), #90, .T. ) ;
#99 = CARTESIAN_POINT ( 'NONE',  ( 2.779219145719134403E-13, -9.748188521212932624E-15, 79.60000000000000853 ) ) ;
#100 = CARTESIAN_POINT ( 'NONE',  ( 0.0000000000000000000, 0.0000000000000000000, 0.0000000000000000000 ) ) ;
#101 = CARTESIAN_POINT ( 'NONE',  ( 2.793185071074506684E-13, 1.199807826129472128E-32, 80.00000000000000000 ) ) ;
#102 = APPROVAL_DATE_TIME ( #135, #58 ) ;
#103 = PLANE ( 'NONE',  #42 ) ;
#104 = DIRECTION ( 'NONE',  ( -3.491481338843133355E-15, 1.224646799147353207E-16, -1.000000000000000000 ) ) ;
#105 = MANIFOLD_SOLID_BREP ( 'Corps-Déplacer/Copier1[1]', #202 ) ;
#106 = ORIENTED_EDGE ( 'NONE', *, *, #193, .F. ) ;
#107 = APPROVAL_ROLE ( '' ) ;
#108 = CIRCLE ( 'NONE', #233, 1.600000000000000977 ) ;
#109 = CC_DESIGN_SECURITY_CLASSIFICATION ( #35, ( #192 ) ) ;
#110 = PERSON_AND_ORGANIZATION ( #173, #25 ) ;
#111 = DIRECTION ( 'NONE',  ( -4.275831445896958607E-31, -1.000000000000000000, -1.224646799147353207E-16 ) ) ;
#112 = PERSON_AND_ORGANIZATION_ROLE ( 'classification_officer' ) ;
#113 = CC_DESIGN_PERSON_AND_ORGANIZATION_ASSIGNMENT ( #89, #55, ( #156 ) ) ;
#114 = VERTEX_POINT ( 'NONE', #5 ) ;
#115 = PERSON_AND_ORGANIZATION ( #173, #25 ) ;
#116 = CARTESIAN_POINT ( 'NONE',  ( 4.189777606611760026E-14, 2.115000000000003766, 12.00000000000000000 ) ) ;
#117 = AXIS2_PLACEMENT_3D ( 'NONE', #198, #30, #96 ) ;
#118 = FACE_OUTER_BOUND ( 'NONE', #142, .T. ) ;
#119 = EDGE_LOOP ( 'NONE', ( #71 ) ) ;
#120 = CARTESIAN_POINT ( 'NONE',  ( -7.333050929713299013E-31, 2.572088027265091435E-32, -2.100269260537715098E-16 ) ) ;
#121 = ADVANCED_FACE ( 'NONE', ( #224 ), #10, .F. ) ;
#122 = AXIS2_PLACEMENT_3D ( 'NONE', #99, #179, #52 ) ;
#123 = CARTESIAN_POINT ( 'NONE',  ( 4.189777606611760026E-14, 1.585995970164916418E-32, 12.00000000000000000 ) ) ;
#124 = DIRECTION ( 'NONE',  ( 3.491481338843133355E-15, -1.224646799147353207E-16, 1.000000000000000000 ) ) ;
#125 = EDGE_LOOP ( 'NONE', ( #54 ) ) ;
#126 = CARTESIAN_POINT ( 'NONE',  ( 2.793185071074506684E-13, 1.599999999999991207, 80.00000000000000000 ) ) ;
#127 = CARTESIAN_POINT ( 'NONE',  ( 4.189777606611760026E-14, 1.585995970164916418E-32, 12.00000000000000000 ) ) ;
#128 = PERSON_AND_ORGANIZATION_ROLE ( 'design_supplier' ) ;
#129 = APPLICATION_CONTEXT ( 'configuration controlled 3d designs of mechanical parts and assemblies' ) ;
#130 = FACE_OUTER_BOUND ( 'NONE', #56, .T. ) ;
#131 = PERSON_AND_ORGANIZATION ( #173, #25 ) ;
#132 = CC_DESIGN_PERSON_AND_ORGANIZATION_ASSIGNMENT ( #131, #226, ( #192 ) ) ;
#133 = CYLINDRICAL_SURFACE ( 'NONE', #95, 1.999999999999996669 ) ;
#134 = APPROVAL_ROLE ( '' ) ;
#135 = DATE_AND_TIME ( #151, #155 ) ;
#136 = APPLICATION_PROTOCOL_DEFINITION ( 'international standard', 'config_control_design', 1994, #137 ) ;
#137 = APPLICATION_CONTEXT ( 'configuration controlled 3d designs of mechanical parts and assemblies' ) ;
#138 = AXIS2_PLACEMENT_3D ( 'NONE', #88, #185, #29 ) ;
#139 = FACE_BOUND ( 'NONE', #158, .T. ) ;
#140 = ORIENTED_EDGE ( 'NONE', *, *, #75, .F. ) ;
#141 = EDGE_CURVE ( 'NONE', #74, #74, #108, .T. ) ;
#142 = EDGE_LOOP ( 'NONE', ( #175 ) ) ;
#143 = PLANE ( 'NONE',  #72 ) ;
#144 = AXIS2_PLACEMENT_3D ( 'NONE', #100, #216, #220 ) ;
#145 = COORDINATED_UNIVERSAL_TIME_OFFSET ( 1, 0, .AHEAD. ) ;
#146 = CC_DESIGN_DATE_AND_TIME_ASSIGNMENT ( #69, #34, ( #35 ) ) ;
#147 = DIRECTION ( 'NONE',  ( 0.0000000000000000000, 1.000000000000000000, 0.0000000000000000000 ) ) ;
#148 = DIRECTION ( 'NONE',  ( 0.0000000000000000000, 1.000000000000000000, 0.0000000000000000000 ) ) ;
#149 = APPLICATION_PROTOCOL_DEFINITION ( 'international standard', 'config_control_design', 1994, #129 ) ;
#150 = CARTESIAN_POINT ( 'NONE',  ( 1.396592535537252750E-15, -4.898587196589410610E-17, 0.3999999999999998002 ) ) ;
#151 = CALENDAR_DATE ( 2021, 2, 12 ) ;
#152 = APPROVAL_DATE_TIME ( #40, #50 ) ;
#153 = CC_DESIGN_APPROVAL ( #203, ( #156 ) ) ;
#154 = DATE_AND_TIME ( #73, #47 ) ;
#155 = LOCAL_TIME ( 13, 56, 2.000000000000000000, #145 ) ;
#156 = PRODUCT_DEFINITION ( 'UNKNOWN', '', #192, #194 ) ;
#157 = LOCAL_TIME ( 13, 56, 2.000000000000000000, #207 ) ;
#158 = EDGE_LOOP ( 'NONE', ( #106 ) ) ;
#159 = PRODUCT_DEFINITION_SHAPE ( 'NONE', 'NONE',  #156 ) ;
#160 = ADVANCED_FACE ( 'NONE', ( #218, #139 ), #221, .T. ) ;
#161 = ORIENTED_EDGE ( 'NONE', *, *, #61, .F. ) ;
#162 = FACE_OUTER_BOUND ( 'NONE', #125, .T. ) ;
#163 = AXIS2_PLACEMENT_3D ( 'NONE', #120, #43, #19 ) ;
#164 = EDGE_LOOP ( 'NONE', ( #180 ) ) ;
#165 = FACE_OUTER_BOUND ( 'NONE', #234, .T. ) ;
#166 = DIRECTION ( 'NONE',  ( -3.491481338843133355E-15, 1.224646799147353207E-16, -1.000000000000000000 ) ) ;
#167 = PERSON_AND_ORGANIZATION_ROLE ( 'design_owner' ) ;
#168 = APPROVAL_STATUS ( 'not_yet_approved' ) ;
#169 = DIRECTION ( 'NONE',  ( 4.553025873255865735E-31, 1.000000000000000000, 1.281562851637709005E-16 ) ) ;
#170 = COORDINATED_UNIVERSAL_TIME_OFFSET ( 1, 0, .AHEAD. ) ;
#171 = SHAPE_DEFINITION_REPRESENTATION ( #159, #24 ) ;
#172 = ADVANCED_FACE ( 'NONE', ( #118, #7 ), #28, .T. ) ;
#173 = PERSON ( 'UNSPECIFIED', 'UNSPECIFIED', 'UNSPECIFIED', ('UNSPECIFIED'), ('UNSPECIFIED'), ('UNSPECIFIED') ) ;
#174 = AXIS2_PLACEMENT_3D ( 'NONE', #79, #46, #97 ) ;
#175 = ORIENTED_EDGE ( 'NONE', *, *, #178, .T. ) ;
#176 = CARTESIAN_POINT ( 'NONE',  ( 4.189777606611760026E-14, -1.469576158976823947E-15, 12.00000000000000000 ) ) ;
#177 = EDGE_LOOP ( 'NONE', ( #45 ) ) ;
#178 = EDGE_CURVE ( 'NONE', #41, #41, #60, .T. ) ;
#179 = DIRECTION ( 'NONE',  ( -3.491481338843133355E-15, 1.224646799147353207E-16, -1.000000000000000000 ) ) ;
#180 = ORIENTED_EDGE ( 'NONE', *, *, #196, .F. ) ;
#181 = CIRCLE ( 'NONE', #138, 1.999999999999991784 ) ;
#182 = DIRECTION ( 'NONE',  ( 0.0000000000000000000, 1.000000000000000000, 0.0000000000000000000 ) ) ;
#183 = APPROVAL_PERSON_ORGANIZATION ( #110, #58, #107 ) ;
#184 = APPROVAL_STATUS ( 'not_yet_approved' ) ;
#185 = DIRECTION ( 'NONE',  ( -3.491481338843133355E-15, 1.224646799147353207E-16, -1.000000000000000000 ) ) ;
#186 = COORDINATED_UNIVERSAL_TIME_OFFSET ( 1, 0, .AHEAD. ) ;
#187 = PRODUCT_RELATED_PRODUCT_CATEGORY ( 'detail', '', ( #215 ) ) ;
#188 = CIRCLE ( 'NONE', #122, 2.000000000000000888 ) ;
#189 = MANIFOLD_SOLID_BREP ( 'Corps-Déplacer/Copier1[2]', #9 ) ;
#190 = ORIENTED_EDGE ( 'NONE', *, *, #193, .T. ) ;
#191 = CIRCLE ( 'NONE', #174, 1.715000000000003633 ) ;
#192 = PRODUCT_DEFINITION_FORMATION_WITH_SPECIFIED_SOURCE ( 'ANY', '', #215, .NOT_KNOWN. ) ;
#193 = EDGE_CURVE ( 'NONE', #237, #237, #191, .T. ) ;
#194 = DESIGN_CONTEXT ( 'detailed design', #129, 'design' ) ;
#195 = EDGE_LOOP ( 'NONE', ( #190 ) ) ;
#196 = EDGE_CURVE ( 'NONE', #210, #210, #66, .T. ) ;
#197 = DIRECTION ( 'NONE',  ( 4.275831445896958607E-31, 1.000000000000000000, 1.224646799147353207E-16 ) ) ;
#198 = CARTESIAN_POINT ( 'NONE',  ( 4.189777606611760026E-14, -1.469576158976823947E-15, 12.00000000000000000 ) ) ;
#199 = DIRECTION ( 'NONE',  ( -3.491481338843133355E-15, 1.224646799147353207E-16, -1.000000000000000000 ) ) ;
#200 = CARTESIAN_POINT ( 'NONE',  ( -3.666525464856649506E-31, 1.286044013632545718E-32, -1.050134630268857549E-16 ) ) ;
#201 = COORDINATED_UNIVERSAL_TIME_OFFSET ( 1, 0, .AHEAD. ) ;
#202 = CLOSED_SHELL ( 'NONE', ( #121, #98, #225, #92, #3 ) ) ;
#203 = APPROVAL ( #87, 'UNSPECIFIED' ) ;
#204 = DIRECTION ( 'NONE',  ( 3.491481338843133355E-15, -1.224646799147353207E-16, 1.000000000000000000 ) ) ;
#205 = PERSON_AND_ORGANIZATION ( #173, #25 ) ;
#206 = CARTESIAN_POINT ( 'NONE',  ( 4.259322971946148937E-14, 1.999999999999990452, 12.19918584287044361 ) ) ;
#207 = COORDINATED_UNIVERSAL_TIME_OFFSET ( 1, 0, .AHEAD. ) ;
#208 = CARTESIAN_POINT ( 'NONE',  ( 0.0000000000000000000, 0.0000000000000000000, 0.0000000000000000000 ) ) ;
#209 = AXIS2_PLACEMENT_3D ( 'NONE', #176, #104, #147 ) ;
#210 = VERTEX_POINT ( 'NONE', #93 ) ;
#211 = AXIS2_PLACEMENT_3D ( 'NONE', #1, #199, #83 ) ;
#212 = LOCAL_TIME ( 13, 56, 2.000000000000000000, #170 ) ;
#213 =( NAMED_UNIT ( * ) SI_UNIT ( $, .STERADIAN. ) SOLID_ANGLE_UNIT ( ) );
#214 = CC_DESIGN_PERSON_AND_ORGANIZATION_ASSIGNMENT ( #86, #167, ( #215 ) ) ;
#215 = PRODUCT ( '321649', '321649', '', ( #6 ) ) ;
#216 = DIRECTION ( 'NONE',  ( -3.491481338843133355E-15, 1.224646799147353207E-16, -1.000000000000000000 ) ) ;
#217 = APPROVAL_PERSON_ORGANIZATION ( #228, #50, #134 ) ;
#218 = FACE_OUTER_BOUND ( 'NONE', #119, .T. ) ;
#219 = ORIENTED_EDGE ( 'NONE', *, *, #178, .F. ) ;
#220 = DIRECTION ( 'NONE',  ( 4.275831445896958607E-31, 1.000000000000000000, 1.224646799147352961E-16 ) ) ;
#221 = CONICAL_SURFACE ( 'NONE', #163, 1.715000000000003633, 0.7853981633974498333 ) ;
#222 = CARTESIAN_POINT ( 'NONE',  ( 4.189777606611760026E-14, -1.469576158976823947E-15, 12.00000000000000000 ) ) ;
#223 = VERTEX_POINT ( 'NONE', #206 ) ;
#224 = FACE_OUTER_BOUND ( 'NONE', #240, .T. ) ;
#225 = ADVANCED_FACE ( 'NONE', ( #231, #165 ), #133, .T. ) ;
#226 = PERSON_AND_ORGANIZATION_ROLE ( 'creator' ) ;
#227 = DIRECTION ( 'NONE',  ( -3.491481338843133355E-15, 1.224646799147353207E-16, -1.000000000000000000 ) ) ;
#228 = PERSON_AND_ORGANIZATION ( #173, #25 ) ;
#229 = PERSON_AND_ORGANIZATION ( #173, #25 ) ;
#230 = DIRECTION ( 'NONE',  ( 1.000000000000000000, 0.0000000000000000000, 0.0000000000000000000 ) ) ;
#231 = FACE_OUTER_BOUND ( 'NONE', #235, .T. ) ;
#232 = AXIS2_PLACEMENT_3D ( 'NONE', #21, #77, #230 ) ;
#233 = AXIS2_PLACEMENT_3D ( 'NONE', #17, #32, #182 ) ;
#234 = EDGE_LOOP ( 'NONE', ( #31 ) ) ;
#235 = EDGE_LOOP ( 'NONE', ( #161 ) ) ;
#236 = FACE_OUTER_BOUND ( 'NONE', #164, .T. ) ;
#237 = VERTEX_POINT ( 'NONE', #67 ) ;
#238 = AXIS2_PLACEMENT_3D ( 'NONE', #150, #68, #169 ) ;
#239 = CIRCLE ( 'NONE', #238, 2.115000000000005098 ) ;
#240 = EDGE_LOOP ( 'NONE', ( #27 ) ) ;
#241 = DIRECTION ( 'NONE',  ( -3.491481338843133355E-15, 1.224646799147353207E-16, -1.000000000000000000 ) ) ;
#242 = ORIENTED_EDGE ( 'NONE', *, *, #61, .T. ) ;
#243 = SECURITY_CLASSIFICATION_LEVEL ( 'unclassified' ) ;
ENDSEC;
END-ISO-10303-21;
