ISO-10303-21;
HEADER;
FILE_DESCRIPTION (( 'STEP AP203' ),
    '1' );
FILE_NAME ('321648.step',
    '2021-12-02T12:56:01',
    ( '' ),
    ( '' ),
    'SwSTEP 2.0',
    'SolidWorks 2019',
    '' );
FILE_SCHEMA (( 'CONFIG_CONTROL_DESIGN' ));
ENDSEC;

DATA;
#1 = APPLICATION_PROTOCOL_DEFINITION ( 'international standard', 'config_control_design', 1994, #57 ) ;
#2 = EDGE_CURVE ( 'NONE', #13, #13, #209, .T. ) ;
#3 = APPROVAL_STATUS ( 'not_yet_approved' ) ;
#4 =( GEOMETRIC_REPRESENTATION_CONTEXT ( 3 ) GLOBAL_UNCERTAINTY_ASSIGNED_CONTEXT ( ( #224 ) ) GLOBAL_UNIT_ASSIGNED_CONTEXT ( ( #122, #42, #201 ) ) REPRESENTATION_CONTEXT ( 'NONE', 'WORKASPACE' ) );
#5 = EDGE_LOOP ( 'NONE', ( #19 ) ) ;
#6 = AXIS2_PLACEMENT_3D ( 'NONE', #34, #110, #138 ) ;
#7 = CARTESIAN_POINT ( 'NONE',  ( 0.0000000000000000000, 0.0000000000000000000, 0.0000000000000000000 ) ) ;
#8 = FACE_BOUND ( 'NONE', #93, .T. ) ;
#9 = ADVANCED_FACE ( 'NONE', ( #62, #8 ), #87, .T. ) ;
#10 = CONICAL_SURFACE ( 'NONE', #96, 2.110000000000005205, 0.5235987755982991487 ) ;
#11 = EDGE_LOOP ( 'NONE', ( #181 ) ) ;
#12 = PERSON_AND_ORGANIZATION_ROLE ( 'classification_officer' ) ;
#13 = VERTEX_POINT ( 'NONE', #18 ) ;
#14 = AXIS2_PLACEMENT_3D ( 'NONE', #199, #83, #49 ) ;
#15 = CARTESIAN_POINT ( 'NONE',  ( 2.793185071074506684E-13, 1.599999999999991207, 80.00000000000000000 ) ) ;
#16 = FACE_OUTER_BOUND ( 'NONE', #221, .T. ) ;
#17 = PLANE ( 'NONE',  #119 ) ;
#18 = CARTESIAN_POINT ( 'NONE',  ( 4.256299260409872063E-14, 1.999999999999990452, 12.19052558883259962 ) ) ;
#19 = ORIENTED_EDGE ( 'NONE', *, *, #82, .T. ) ;
#20 = PERSON_AND_ORGANIZATION ( #81, #163 ) ;
#21 = EDGE_LOOP ( 'NONE', ( #90 ) ) ;
#22 = AXIS2_PLACEMENT_3D ( 'NONE', #79, #121, #154 ) ;
#23 = EDGE_CURVE ( 'NONE', #211, #211, #189, .T. ) ;
#24 = PLANE ( 'NONE',  #22 ) ;
#25 = APPROVAL_PERSON_ORGANIZATION ( #102, #142, #106 ) ;
#26 = SECURITY_CLASSIFICATION_LEVEL ( 'unclassified' ) ;
#27 = VERTEX_POINT ( 'NONE', #178 ) ;
#28 = CC_DESIGN_DATE_AND_TIME_ASSIGNMENT ( #169, #194, ( #80 ) ) ;
#29 = CARTESIAN_POINT ( 'NONE',  ( 4.189777606611760026E-14, -1.469576158976823947E-15, 12.00000000000000000 ) ) ;
#30 = AXIS2_PLACEMENT_3D ( 'NONE', #86, #218, #159 ) ;
#31 = FACE_OUTER_BOUND ( 'NONE', #41, .T. ) ;
#32 = ORIENTED_EDGE ( 'NONE', *, *, #82, .F. ) ;
#33 = SHAPE_DEFINITION_REPRESENTATION ( #187, #227 ) ;
#34 = CARTESIAN_POINT ( 'NONE',  ( 4.189777606611760026E-14, 1.582246570708261747E-32, 12.00000000000000000 ) ) ;
#35 = CARTESIAN_POINT ( 'NONE',  ( 1.396592535537254131E-15, 2.110000000000005205, 0.4000000000000001887 ) ) ;
#36 = EDGE_LOOP ( 'NONE', ( #222 ) ) ;
#37 = AXIS2_PLACEMENT_3D ( 'NONE', #100, #58, #155 ) ;
#38 = CIRCLE ( 'NONE', #173, 2.110000000000005205 ) ;
#39 = COORDINATED_UNIVERSAL_TIME_OFFSET ( 1, 0, .AHEAD. ) ;
#40 = EDGE_CURVE ( 'NONE', #51, #51, #63, .T. ) ;
#41 = EDGE_LOOP ( 'NONE', ( #128 ) ) ;
#42 =( NAMED_UNIT ( * ) PLANE_ANGLE_UNIT ( ) SI_UNIT ( $, .RADIAN. ) );
#43 = APPROVAL_ROLE ( '' ) ;
#44 = ADVANCED_FACE ( 'NONE', ( #97, #166 ), #134, .T. ) ;
#45 = DIRECTION ( 'NONE',  ( -3.491481338843133355E-15, 1.224646799147353207E-16, -1.000000000000000000 ) ) ;
#46 = DIRECTION ( 'NONE',  ( -3.491481338843133355E-15, 1.224646799147353207E-16, -1.000000000000000000 ) ) ;
#47 = EDGE_LOOP ( 'NONE', ( #70 ) ) ;
#48 = DIRECTION ( 'NONE',  ( 0.0000000000000000000, 1.000000000000000000, 0.0000000000000000000 ) ) ;
#49 = DIRECTION ( 'NONE',  ( 0.0000000000000000000, 1.000000000000000000, 0.0000000000000000000 ) ) ;
#50 = PERSON_AND_ORGANIZATION ( #81, #163 ) ;
#51 = VERTEX_POINT ( 'NONE', #15 ) ;
#52 = VERTEX_POINT ( 'NONE', #127 ) ;
#53 = CC_DESIGN_PERSON_AND_ORGANIZATION_ASSIGNMENT ( #20, #54, ( #149 ) ) ;
#54 = PERSON_AND_ORGANIZATION_ROLE ( 'design_owner' ) ;
#55 = APPROVAL_DATE_TIME ( #226, #212 ) ;
#56 = ADVANCED_FACE ( 'NONE', ( #120 ), #24, .F. ) ;
#57 = APPLICATION_CONTEXT ( 'configuration controlled 3d designs of mechanical parts and assemblies' ) ;
#58 = DIRECTION ( 'NONE',  ( -3.491481338843133355E-15, 1.224646799147353207E-16, -1.000000000000000000 ) ) ;
#59 = FACE_OUTER_BOUND ( 'NONE', #11, .T. ) ;
#60 = DIRECTION ( 'NONE',  ( 4.275831445896958607E-31, 1.000000000000000000, 1.224646799147353207E-16 ) ) ;
#61 = PERSON_AND_ORGANIZATION_ROLE ( 'design_supplier' ) ;
#62 = FACE_OUTER_BOUND ( 'NONE', #113, .T. ) ;
#63 = CIRCLE ( 'NONE', #202, 1.600000000000000977 ) ;
#64 = CARTESIAN_POINT ( 'NONE',  ( 2.793185071074506684E-13, 1.199807826129472128E-32, 80.00000000000000000 ) ) ;
#65 = PERSON_AND_ORGANIZATION ( #81, #163 ) ;
#66 = DIRECTION ( 'NONE',  ( 3.491481338843133355E-15, -1.224646799147353207E-16, 1.000000000000000000 ) ) ;
#67 = ADVANCED_FACE ( 'NONE', ( #59, #191 ), #217, .T. ) ;
#68 = DIRECTION ( 'NONE',  ( -3.491481338843133355E-15, 1.224646799147353207E-16, -1.000000000000000000 ) ) ;
#69 = FACE_OUTER_BOUND ( 'NONE', #111, .T. ) ;
#70 = ORIENTED_EDGE ( 'NONE', *, *, #40, .F. ) ;
#71 = APPROVAL_DATE_TIME ( #116, #192 ) ;
#72 = ADVANCED_FACE ( 'NONE', ( #235, #16 ), #10, .T. ) ;
#73 = ORIENTED_EDGE ( 'NONE', *, *, #204, .T. ) ;
#74 = LOCAL_TIME ( 13, 56, 1.000000000000000000, #39 ) ;
#75 = PERSON_AND_ORGANIZATION ( #81, #163 ) ;
#76 = APPROVAL_ROLE ( '' ) ;
#77 = APPLICATION_CONTEXT ( 'configuration controlled 3d designs of mechanical parts and assemblies' ) ;
#78 = DIRECTION ( 'NONE',  ( 4.275831445896958607E-31, 1.000000000000000000, 1.224646799147353207E-16 ) ) ;
#79 = CARTESIAN_POINT ( 'NONE',  ( 4.189777606611760026E-14, 1.582246570708261747E-32, 12.00000000000000000 ) ) ;
#80 = SECURITY_CLASSIFICATION ( '', '', #26 ) ;
#81 = PERSON ( 'UNSPECIFIED', 'UNSPECIFIED', 'UNSPECIFIED', ('UNSPECIFIED'), ('UNSPECIFIED'), ('UNSPECIFIED') ) ;
#82 = EDGE_CURVE ( 'NONE', #52, #52, #131, .T. ) ;
#83 = DIRECTION ( 'NONE',  ( -3.491481338843133355E-15, 1.224646799147353207E-16, -1.000000000000000000 ) ) ;
#84 = PLANE ( 'NONE',  #108 ) ;
#85 = ORIENTED_EDGE ( 'NONE', *, *, #2, .F. ) ;
#86 = CARTESIAN_POINT ( 'NONE',  ( 4.189777606611760026E-14, -1.469576158976823947E-15, 12.00000000000000000 ) ) ;
#87 = CONICAL_SURFACE ( 'NONE', #37, 1.600000000000000977, 0.7853981633974512766 ) ;
#88 = LOCAL_TIME ( 13, 56, 1.000000000000000000, #146 ) ;
#89 = CARTESIAN_POINT ( 'NONE',  ( -3.655835886241907587E-31, 1.282294614175891046E-32, -1.047073013270989357E-16 ) ) ;
#90 = ORIENTED_EDGE ( 'NONE', *, *, #126, .F. ) ;
#91 = CALENDAR_DATE ( 2021, 2, 12 ) ;
#92 = PERSON_AND_ORGANIZATION ( #81, #163 ) ;
#93 = EDGE_LOOP ( 'NONE', ( #219 ) ) ;
#94 = APPROVAL_PERSON_ORGANIZATION ( #92, #212, #76 ) ;
#95 = CALENDAR_DATE ( 2021, 2, 12 ) ;
#96 = AXIS2_PLACEMENT_3D ( 'NONE', #29, #137, #48 ) ;
#97 = FACE_OUTER_BOUND ( 'NONE', #5, .T. ) ;
#98 = CC_DESIGN_PERSON_AND_ORGANIZATION_ASSIGNMENT ( #207, #136, ( #133 ) ) ;
#99 = MANIFOLD_SOLID_BREP ( 'Corps-Déplacer/Copier1[1]', #185 ) ;
#100 = CARTESIAN_POINT ( 'NONE',  ( 2.793185071074506684E-13, -9.797174393178826052E-15, 80.00000000000000000 ) ) ;
#101 = CIRCLE ( 'NONE', #30, 2.110000000000005205 ) ;
#102 = PERSON_AND_ORGANIZATION ( #81, #163 ) ;
#103 = CARTESIAN_POINT ( 'NONE',  ( -7.311671772483815175E-31, 2.564589228351782093E-32, -2.094146026541978715E-16 ) ) ;
#104 = CYLINDRICAL_SURFACE ( 'NONE', #208, 1.999999999999996669 ) ;
#105 = ADVANCED_FACE ( 'NONE', ( #31 ), #84, .T. ) ;
#106 = APPROVAL_ROLE ( '' ) ;
#107 = DIRECTION ( 'NONE',  ( 4.275831445896958607E-31, 1.000000000000000000, 1.224646799147353207E-16 ) ) ;
#108 = AXIS2_PLACEMENT_3D ( 'NONE', #89, #109, #175 ) ;
#109 = DIRECTION ( 'NONE',  ( -3.491481338843133355E-15, 1.224646799147353207E-16, -1.000000000000000000 ) ) ;
#110 = DIRECTION ( 'NONE',  ( 3.491481338843133355E-15, -1.224646799147353207E-16, 1.000000000000000000 ) ) ;
#111 = EDGE_LOOP ( 'NONE', ( #85 ) ) ;
#112 = CARTESIAN_POINT ( 'NONE',  ( 2.779219145719134403E-13, 1.999999999999991340, 79.60000000000000853 ) ) ;
#113 = EDGE_LOOP ( 'NONE', ( #232 ) ) ;
#114 = EDGE_LOOP ( 'NONE', ( #177 ) ) ;
#115 = EDGE_LOOP ( 'NONE', ( #240 ) ) ;
#116 = DATE_AND_TIME ( #91, #88 ) ;
#117 = CC_DESIGN_SECURITY_CLASSIFICATION ( #80, ( #133 ) ) ;
#118 = DIRECTION ( 'NONE',  ( -3.491481338843133355E-15, 1.224646799147353207E-16, -1.000000000000000000 ) ) ;
#119 = AXIS2_PLACEMENT_3D ( 'NONE', #64, #238, #234 ) ;
#120 = FACE_OUTER_BOUND ( 'NONE', #147, .T. ) ;
#121 = DIRECTION ( 'NONE',  ( 3.491481338843133355E-15, -1.224646799147353207E-16, 1.000000000000000000 ) ) ;
#122 =( LENGTH_UNIT ( ) NAMED_UNIT ( * ) SI_UNIT ( .MILLI., .METRE. ) );
#123 = DIRECTION ( 'NONE',  ( -3.491481338843133355E-15, 1.224646799147353207E-16, -1.000000000000000000 ) ) ;
#124 = CC_DESIGN_APPROVAL ( #142, ( #80 ) ) ;
#125 = FACE_OUTER_BOUND ( 'NONE', #242, .T. ) ;
#126 = EDGE_CURVE ( 'NONE', #200, #200, #38, .T. ) ;
#127 = CARTESIAN_POINT ( 'NONE',  ( 4.189777606611760026E-14, 2.110000000000003872, 12.00000000000000000 ) ) ;
#128 = ORIENTED_EDGE ( 'NONE', *, *, #23, .T. ) ;
#129 = APPROVAL_STATUS ( 'not_yet_approved' ) ;
#130 = DIRECTION ( 'NONE',  ( 1.000000000000000000, 0.0000000000000000000, 0.0000000000000000000 ) ) ;
#131 = CIRCLE ( 'NONE', #14, 2.110000000000005205 ) ;
#132 = CC_DESIGN_PERSON_AND_ORGANIZATION_ASSIGNMENT ( #144, #220, ( #225 ) ) ;
#133 = PRODUCT_DEFINITION_FORMATION_WITH_SPECIFIED_SOURCE ( 'ANY', '', #149, .NOT_KNOWN. ) ;
#134 = CYLINDRICAL_SURFACE ( 'NONE', #190, 2.110000000000005205 ) ;
#135 = CC_DESIGN_PERSON_AND_ORGANIZATION_ASSIGNMENT ( #50, #12, ( #80 ) ) ;
#136 = PERSON_AND_ORGANIZATION_ROLE ( 'creator' ) ;
#137 = DIRECTION ( 'NONE',  ( -3.491481338843133355E-15, 1.224646799147353207E-16, -1.000000000000000000 ) ) ;
#138 = DIRECTION ( 'NONE',  ( -4.275831445896958607E-31, -1.000000000000000000, -1.224646799147353207E-16 ) ) ;
#139 = ADVANCED_FACE ( 'NONE', ( #125 ), #197, .T. ) ;
#140 = FACE_OUTER_BOUND ( 'NONE', #47, .T. ) ;
#141 = LOCAL_TIME ( 13, 56, 1.000000000000000000, #210 ) ;
#142 = APPROVAL ( #215, 'UNSPECIFIED' ) ;
#143 = FACE_OUTER_BOUND ( 'NONE', #36, .T. ) ;
#144 = PERSON_AND_ORGANIZATION ( #81, #163 ) ;
#145 = ORIENTED_EDGE ( 'NONE', *, *, #204, .F. ) ;
#146 = COORDINATED_UNIVERSAL_TIME_OFFSET ( 1, 0, .AHEAD. ) ;
#147 = EDGE_LOOP ( 'NONE', ( #73 ) ) ;
#148 = AXIS2_PLACEMENT_3D ( 'NONE', #214, #68, #170 ) ;
#149 = PRODUCT ( '321648', '321648', '', ( #180 ) ) ;
#150 = CLOSED_SHELL ( 'NONE', ( #44, #139, #105, #67 ) ) ;
#151 = ADVANCED_FACE ( 'NONE', ( #140 ), #17, .F. ) ;
#152 = CARTESIAN_POINT ( 'NONE',  ( 2.793185071074506684E-13, -9.797174393178826052E-15, 80.00000000000000000 ) ) ;
#153 = CC_DESIGN_APPROVAL ( #212, ( #133 ) ) ;
#154 = DIRECTION ( 'NONE',  ( -4.275831445896958607E-31, -1.000000000000000000, -1.224646799147353207E-16 ) ) ;
#155 = DIRECTION ( 'NONE',  ( 0.0000000000000000000, 1.000000000000000000, 0.0000000000000000000 ) ) ;
#156 = VERTEX_POINT ( 'NONE', #112 ) ;
#157 = CARTESIAN_POINT ( 'NONE',  ( -7.311671772483815175E-31, 2.564589228351782093E-32, -2.094146026541978715E-16 ) ) ;
#158 = AXIS2_PLACEMENT_3D ( 'NONE', #165, #167, #188 ) ;
#159 = DIRECTION ( 'NONE',  ( 0.0000000000000000000, 1.000000000000000000, 0.0000000000000000000 ) ) ;
#160 = CALENDAR_DATE ( 2021, 2, 12 ) ;
#161 = CIRCLE ( 'NONE', #148, 2.000000000000000888 ) ;
#162 = ADVANCED_FACE ( 'NONE', ( #69, #143 ), #104, .T. ) ;
#163 = ORGANIZATION ( 'UNSPECIFIED', 'UNSPECIFIED', '' ) ;
#164 = EDGE_CURVE ( 'NONE', #156, #156, #161, .T. ) ;
#165 = CARTESIAN_POINT ( 'NONE',  ( 4.256299260409872063E-14, -1.492908814228774526E-15, 12.19052558883259962 ) ) ;
#166 = FACE_OUTER_BOUND ( 'NONE', #21, .T. ) ;
#167 = DIRECTION ( 'NONE',  ( -3.491481338843133355E-15, 1.224646799147353207E-16, -1.000000000000000000 ) ) ;
#168 = COORDINATED_UNIVERSAL_TIME_OFFSET ( 1, 0, .AHEAD. ) ;
#169 = DATE_AND_TIME ( #236, #141 ) ;
#170 = DIRECTION ( 'NONE',  ( 0.0000000000000000000, 1.000000000000000000, 0.0000000000000000000 ) ) ;
#171 = MANIFOLD_SOLID_BREP ( 'Corps-Déplacer/Copier1[2]', #150 ) ;
#172 = DIRECTION ( 'NONE',  ( -3.491481338843133355E-15, 1.224646799147353207E-16, -1.000000000000000000 ) ) ;
#173 = AXIS2_PLACEMENT_3D ( 'NONE', #237, #123, #195 ) ;
#174 = CC_DESIGN_DATE_AND_TIME_ASSIGNMENT ( #243, #203, ( #225 ) ) ;
#175 = DIRECTION ( 'NONE',  ( 4.275831445896958607E-31, 1.000000000000000000, 1.224646799147353207E-16 ) ) ;
#176 = DIRECTION ( 'NONE',  ( -4.275831445896958607E-31, -1.000000000000000000, -1.224646799147353207E-16 ) ) ;
#177 = ORIENTED_EDGE ( 'NONE', *, *, #23, .F. ) ;
#178 = CARTESIAN_POINT ( 'NONE',  ( 4.189777606611760026E-14, 2.110000000000003872, 12.00000000000000000 ) ) ;
#179 = APPROVAL_PERSON_ORGANIZATION ( #75, #192, #43 ) ;
#180 = MECHANICAL_CONTEXT ( 'NONE', #77, 'mechanical' ) ;
#181 = ORIENTED_EDGE ( 'NONE', *, *, #126, .T. ) ;
#182 = DIRECTION ( 'NONE',  ( 0.0000000000000000000, 0.0000000000000000000, 1.000000000000000000 ) ) ;
#183 = COORDINATED_UNIVERSAL_TIME_OFFSET ( 1, 0, .AHEAD. ) ;
#184 = CC_DESIGN_PERSON_AND_ORGANIZATION_ASSIGNMENT ( #65, #61, ( #133 ) ) ;
#185 = CLOSED_SHELL ( 'NONE', ( #56, #72, #162, #9, #151 ) ) ;
#186 = DESIGN_CONTEXT ( 'detailed design', #57, 'design' ) ;
#187 = PRODUCT_DEFINITION_SHAPE ( 'NONE', 'NONE',  #225 ) ;
#188 = DIRECTION ( 'NONE',  ( 0.0000000000000000000, 1.000000000000000000, 0.0000000000000000000 ) ) ;
#189 = CIRCLE ( 'NONE', #228, 1.710000000000003739 ) ;
#190 = AXIS2_PLACEMENT_3D ( 'NONE', #7, #46, #78 ) ;
#191 = FACE_BOUND ( 'NONE', #114, .T. ) ;
#192 = APPROVAL ( #129, 'UNSPECIFIED' ) ;
#193 = CALENDAR_DATE ( 2021, 2, 12 ) ;
#194 = DATE_TIME_ROLE ( 'classification_date' ) ;
#195 = DIRECTION ( 'NONE',  ( 4.563815034092964350E-31, 1.000000000000000000, 1.284599730433058859E-16 ) ) ;
#196 = APPROVAL_DATE_TIME ( #213, #142 ) ;
#197 = PLANE ( 'NONE',  #6 ) ;
#198 = AXIS2_PLACEMENT_3D ( 'NONE', #157, #66, #176 ) ;
#199 = CARTESIAN_POINT ( 'NONE',  ( 4.189777606611760026E-14, -1.469576158976823947E-15, 12.00000000000000000 ) ) ;
#200 = VERTEX_POINT ( 'NONE', #35 ) ;
#201 =( NAMED_UNIT ( * ) SI_UNIT ( $, .STERADIAN. ) SOLID_ANGLE_UNIT ( ) );
#202 = AXIS2_PLACEMENT_3D ( 'NONE', #152, #118, #230 ) ;
#203 = DATE_TIME_ROLE ( 'creation_date' ) ;
#204 = EDGE_CURVE ( 'NONE', #27, #27, #101, .T. ) ;
#205 = CARTESIAN_POINT ( 'NONE',  ( 0.0000000000000000000, 0.0000000000000000000, 0.0000000000000000000 ) ) ;
#206 = PRODUCT_RELATED_PRODUCT_CATEGORY ( 'detail', '', ( #149 ) ) ;
#207 = PERSON_AND_ORGANIZATION ( #81, #163 ) ;
#208 = AXIS2_PLACEMENT_3D ( 'NONE', #216, #172, #107 ) ;
#209 = CIRCLE ( 'NONE', #158, 1.999999999999991784 ) ;
#210 = COORDINATED_UNIVERSAL_TIME_OFFSET ( 1, 0, .AHEAD. ) ;
#211 = VERTEX_POINT ( 'NONE', #241 ) ;
#212 = APPROVAL ( #3, 'UNSPECIFIED' ) ;
#213 = DATE_AND_TIME ( #193, #229 ) ;
#214 = CARTESIAN_POINT ( 'NONE',  ( 2.779219145719134403E-13, -9.748188521212932624E-15, 79.60000000000000853 ) ) ;
#215 = APPROVAL_STATUS ( 'not_yet_approved' ) ;
#216 = CARTESIAN_POINT ( 'NONE',  ( 0.0000000000000000000, 0.0000000000000000000, 0.0000000000000000000 ) ) ;
#217 = CONICAL_SURFACE ( 'NONE', #198, 1.710000000000003739, 0.7853981633974497223 ) ;
#218 = DIRECTION ( 'NONE',  ( -3.491481338843133355E-15, 1.224646799147353207E-16, -1.000000000000000000 ) ) ;
#219 = ORIENTED_EDGE ( 'NONE', *, *, #40, .T. ) ;
#220 = PERSON_AND_ORGANIZATION_ROLE ( 'creator' ) ;
#221 = EDGE_LOOP ( 'NONE', ( #145 ) ) ;
#222 = ORIENTED_EDGE ( 'NONE', *, *, #164, .T. ) ;
#223 = APPLICATION_PROTOCOL_DEFINITION ( 'international standard', 'config_control_design', 1994, #77 ) ;
#224 = UNCERTAINTY_MEASURE_WITH_UNIT (LENGTH_MEASURE( 1.000000000000000082E-05 ), #122, 'distance_accuracy_value', 'NONE');
#225 = PRODUCT_DEFINITION ( 'UNKNOWN', '', #133, #186 ) ;
#226 = DATE_AND_TIME ( #95, #231 ) ;
#227 = ADVANCED_BREP_SHAPE_REPRESENTATION ( '321648', ( #99, #171, #233 ), #4 ) ;
#228 = AXIS2_PLACEMENT_3D ( 'NONE', #103, #45, #60 ) ;
#229 = LOCAL_TIME ( 13, 56, 1.000000000000000000, #168 ) ;
#230 = DIRECTION ( 'NONE',  ( 0.0000000000000000000, 1.000000000000000000, 0.0000000000000000000 ) ) ;
#231 = LOCAL_TIME ( 13, 56, 1.000000000000000000, #183 ) ;
#232 = ORIENTED_EDGE ( 'NONE', *, *, #164, .F. ) ;
#233 = AXIS2_PLACEMENT_3D ( 'NONE', #205, #182, #130 ) ;
#234 = DIRECTION ( 'NONE',  ( 4.275831445896958607E-31, 1.000000000000000000, 1.224646799147353207E-16 ) ) ;
#235 = FACE_BOUND ( 'NONE', #115, .T. ) ;
#236 = CALENDAR_DATE ( 2021, 2, 12 ) ;
#237 = CARTESIAN_POINT ( 'NONE',  ( 1.396592535537253145E-15, -4.898587196589411843E-17, 0.3999999999999999112 ) ) ;
#238 = DIRECTION ( 'NONE',  ( -3.491481338843133355E-15, 1.224646799147353207E-16, -1.000000000000000000 ) ) ;
#239 = CC_DESIGN_APPROVAL ( #192, ( #225 ) ) ;
#240 = ORIENTED_EDGE ( 'NONE', *, *, #2, .T. ) ;
#241 = CARTESIAN_POINT ( 'NONE',  ( 0.0000000000000000000, 1.710000000000003739, 0.0000000000000000000 ) ) ;
#242 = EDGE_LOOP ( 'NONE', ( #32 ) ) ;
#243 = DATE_AND_TIME ( #160, #74 ) ;
ENDSEC;
END-ISO-10303-21;
