ISO-10303-21;
HEADER;
FILE_DESCRIPTION (( 'STEP AP203' ),
    '1' );
FILE_NAME ('321647.step',
    '2021-12-02T12:56:01',
    ( '' ),
    ( '' ),
    'SwSTEP 2.0',
    'SolidWorks 2019',
    '' );
FILE_SCHEMA (( 'CONFIG_CONTROL_DESIGN' ));
ENDSEC;

DATA;
#1 = ORIENTED_EDGE ( 'NONE', *, *, #69, .T. ) ;
#2 = PERSON_AND_ORGANIZATION_ROLE ( 'design_owner' ) ;
#3 = AXIS2_PLACEMENT_3D ( 'NONE', #56, #214, #84 ) ;
#4 = DATE_AND_TIME ( #139, #125 ) ;
#5 = APPLICATION_CONTEXT ( 'configuration controlled 3d designs of mechanical parts and assemblies' ) ;
#6 = PERSON_AND_ORGANIZATION_ROLE ( 'creator' ) ;
#7 = CALENDAR_DATE ( 2021, 2, 12 ) ;
#8 = CC_DESIGN_APPROVAL ( #216, ( #64 ) ) ;
#9 = FACE_OUTER_BOUND ( 'NONE', #66, .T. ) ;
#10 = DIRECTION ( 'NONE',  ( 4.275831445896958607E-31, 1.000000000000000000, 1.224646799147353207E-16 ) ) ;
#11 = PRODUCT_DEFINITION_SHAPE ( 'NONE', 'NONE',  #64 ) ;
#12 = CLOSED_SHELL ( 'NONE', ( #44, #50, #118, #155, #182 ) ) ;
#13 = DIRECTION ( 'NONE',  ( -3.491481338843133355E-15, 1.224646799147353207E-16, -1.000000000000000000 ) ) ;
#14 = CYLINDRICAL_SURFACE ( 'NONE', #164, 2.105000000000004867 ) ;
#15 = EDGE_CURVE ( 'NONE', #207, #207, #73, .T. ) ;
#16 = CC_DESIGN_APPROVAL ( #85, ( #27 ) ) ;
#17 = ORIENTED_EDGE ( 'NONE', *, *, #69, .F. ) ;
#18 = APPLICATION_CONTEXT ( 'configuration controlled 3d designs of mechanical parts and assemblies' ) ;
#19 = CARTESIAN_POINT ( 'NONE',  ( 2.793185071074506684E-13, -9.797174393178826052E-15, 80.00000000000000000 ) ) ;
#20 = APPROVAL_ROLE ( '' ) ;
#21 = CC_DESIGN_PERSON_AND_ORGANIZATION_ASSIGNMENT ( #123, #2, ( #193 ) ) ;
#22 = APPLICATION_PROTOCOL_DEFINITION ( 'international standard', 'config_control_design', 1994, #5 ) ;
#23 = CLOSED_SHELL ( 'NONE', ( #81, #124, #211, #183 ) ) ;
#24 = CALENDAR_DATE ( 2021, 2, 12 ) ;
#25 = EDGE_LOOP ( 'NONE', ( #48 ) ) ;
#26 = CC_DESIGN_PERSON_AND_ORGANIZATION_ASSIGNMENT ( #46, #93, ( #27 ) ) ;
#27 = SECURITY_CLASSIFICATION ( '', '', #144 ) ;
#28 = DIRECTION ( 'NONE',  ( -4.275831445896958607E-31, -1.000000000000000000, -1.224646799147353207E-16 ) ) ;
#29 = DIRECTION ( 'NONE',  ( 4.275831445896958607E-31, 1.000000000000000000, 1.224646799147353207E-16 ) ) ;
#30 = DATE_TIME_ROLE ( 'classification_date' ) ;
#31 = PLANE ( 'NONE',  #113 ) ;
#32 = AXIS2_PLACEMENT_3D ( 'NONE', #221, #75, #10 ) ;
#33 = DIRECTION ( 'NONE',  ( 3.491481338843133355E-15, -1.224646799147353207E-16, 1.000000000000000000 ) ) ;
#34 = ADVANCED_BREP_SHAPE_REPRESENTATION ( '321647', ( #231, #74, #3 ), #121 ) ;
#35 = FACE_OUTER_BOUND ( 'NONE', #67, .T. ) ;
#36 = AXIS2_PLACEMENT_3D ( 'NONE', #223, #192, #172 ) ;
#37 = VERTEX_POINT ( 'NONE', #65 ) ;
#38 = EDGE_LOOP ( 'NONE', ( #43 ) ) ;
#39 = PRODUCT_RELATED_PRODUCT_CATEGORY ( 'detail', '', ( #193 ) ) ;
#40 = CARTESIAN_POINT ( 'NONE',  ( 1.396592535537253737E-15, 2.105000000000004867, 0.4000000000000000777 ) ) ;
#41 = EDGE_LOOP ( 'NONE', ( #138 ) ) ;
#42 =( LENGTH_UNIT ( ) NAMED_UNIT ( * ) SI_UNIT ( .MILLI., .METRE. ) );
#43 = ORIENTED_EDGE ( 'NONE', *, *, #190, .T. ) ;
#44 = ADVANCED_FACE ( 'NONE', ( #9 ), #112, .F. ) ;
#45 = UNCERTAINTY_MEASURE_WITH_UNIT (LENGTH_MEASURE( 1.000000000000000082E-05 ), #42, 'distance_accuracy_value', 'NONE');
#46 = PERSON_AND_ORGANIZATION ( #100, #230 ) ;
#47 = PERSON_AND_ORGANIZATION ( #100, #230 ) ;
#48 = ORIENTED_EDGE ( 'NONE', *, *, #61, .F. ) ;
#49 = PERSON_AND_ORGANIZATION ( #100, #230 ) ;
#50 = ADVANCED_FACE ( 'NONE', ( #94, #133 ), #78, .T. ) ;
#51 = ORIENTED_EDGE ( 'NONE', *, *, #102, .F. ) ;
#52 = PLANE ( 'NONE',  #237 ) ;
#53 = FACE_OUTER_BOUND ( 'NONE', #225, .T. ) ;
#54 = CC_DESIGN_PERSON_AND_ORGANIZATION_ASSIGNMENT ( #49, #109, ( #153 ) ) ;
#55 = DIRECTION ( 'NONE',  ( -3.491481338843133355E-15, 1.224646799147353207E-16, -1.000000000000000000 ) ) ;
#56 = CARTESIAN_POINT ( 'NONE',  ( 0.0000000000000000000, 0.0000000000000000000, 0.0000000000000000000 ) ) ;
#57 = CARTESIAN_POINT ( 'NONE',  ( 4.189777606611760026E-14, -1.469576158976823947E-15, 12.00000000000000000 ) ) ;
#58 = AXIS2_PLACEMENT_3D ( 'NONE', #130, #186, #77 ) ;
#59 = DIRECTION ( 'NONE',  ( -4.275831445896958607E-31, -1.000000000000000000, -1.224646799147353207E-16 ) ) ;
#60 = VERTEX_POINT ( 'NONE', #99 ) ;
#61 = EDGE_CURVE ( 'NONE', #37, #37, #79, .T. ) ;
#62 = CONICAL_SURFACE ( 'NONE', #242, 1.705000000000003624, 0.7853981633974498333 ) ;
#63 = CARTESIAN_POINT ( 'NONE',  ( 2.793185071074506684E-13, 1.599999999999991207, 80.00000000000000000 ) ) ;
#64 = PRODUCT_DEFINITION ( 'UNKNOWN', '', #153, #178 ) ;
#65 = CARTESIAN_POINT ( 'NONE',  ( 4.189777606611760026E-14, 2.105000000000003535, 12.00000000000000000 ) ) ;
#66 = EDGE_LOOP ( 'NONE', ( #191 ) ) ;
#67 = EDGE_LOOP ( 'NONE', ( #212 ) ) ;
#68 = CC_DESIGN_APPROVAL ( #80, ( #153 ) ) ;
#69 = EDGE_CURVE ( 'NONE', #116, #116, #217, .T. ) ;
#70 = CONICAL_SURFACE ( 'NONE', #88, 1.600000000000000977, 0.7853981633974512766 ) ;
#71 = DIRECTION ( 'NONE',  ( 0.0000000000000000000, 1.000000000000000000, 0.0000000000000000000 ) ) ;
#72 = DIRECTION ( 'NONE',  ( 3.491481338843133355E-15, -1.224646799147353207E-16, 1.000000000000000000 ) ) ;
#73 = CIRCLE ( 'NONE', #174, 1.600000000000000977 ) ;
#74 = MANIFOLD_SOLID_BREP ( 'Corps-Déplacer/Copier1[2]', #23 ) ;
#75 = DIRECTION ( 'NONE',  ( -3.491481338843133355E-15, 1.224646799147353207E-16, -1.000000000000000000 ) ) ;
#76 = CARTESIAN_POINT ( 'NONE',  ( 4.189777606611760026E-14, -1.469576158976823947E-15, 12.00000000000000000 ) ) ;
#77 = DIRECTION ( 'NONE',  ( 0.0000000000000000000, 1.000000000000000000, 0.0000000000000000000 ) ) ;
#78 = CONICAL_SURFACE ( 'NONE', #204, 2.105000000000004867, 0.5235987755983001479 ) ;
#79 = CIRCLE ( 'NONE', #101, 2.105000000000004867 ) ;
#80 = APPROVAL ( #236, 'UNSPECIFIED' ) ;
#81 = ADVANCED_FACE ( 'NONE', ( #91, #166 ), #14, .T. ) ;
#82 = APPLICATION_PROTOCOL_DEFINITION ( 'international standard', 'config_control_design', 1994, #18 ) ;
#83 = APPROVAL_DATE_TIME ( #4, #216 ) ;
#84 = DIRECTION ( 'NONE',  ( 1.000000000000000000, 0.0000000000000000000, 0.0000000000000000000 ) ) ;
#85 = APPROVAL ( #127, 'UNSPECIFIED' ) ;
#86 = APPROVAL_ROLE ( '' ) ;
#87 = APPROVAL_STATUS ( 'not_yet_approved' ) ;
#88 = AXIS2_PLACEMENT_3D ( 'NONE', #115, #198, #145 ) ;
#89 = DIRECTION ( 'NONE',  ( 4.275831445896958607E-31, 1.000000000000000000, 1.224646799147353207E-16 ) ) ;
#90 = PERSON_AND_ORGANIZATION ( #100, #230 ) ;
#91 = FACE_OUTER_BOUND ( 'NONE', #38, .T. ) ;
#92 = CARTESIAN_POINT ( 'NONE',  ( 1.396592535537252750E-15, -4.898587196589410610E-17, 0.3999999999999998002 ) ) ;
#93 = PERSON_AND_ORGANIZATION_ROLE ( 'classification_officer' ) ;
#94 = FACE_BOUND ( 'NONE', #143, .T. ) ;
#95 = CARTESIAN_POINT ( 'NONE',  ( 4.189777606611760026E-14, -1.469576158976823947E-15, 12.00000000000000000 ) ) ;
#96 = APPROVAL_PERSON_ORGANIZATION ( #185, #80, #86 ) ;
#97 = PERSON_AND_ORGANIZATION_ROLE ( 'creator' ) ;
#98 = AXIS2_PLACEMENT_3D ( 'NONE', #95, #132, #188 ) ;
#99 = CARTESIAN_POINT ( 'NONE',  ( 4.189777606611760026E-14, 2.105000000000003535, 12.00000000000000000 ) ) ;
#100 = PERSON ( 'UNSPECIFIED', 'UNSPECIFIED', 'UNSPECIFIED', ('UNSPECIFIED'), ('UNSPECIFIED'), ('UNSPECIFIED') ) ;
#101 = AXIS2_PLACEMENT_3D ( 'NONE', #76, #189, #161 ) ;
#102 = EDGE_CURVE ( 'NONE', #136, #136, #187, .T. ) ;
#103 = PERSON_AND_ORGANIZATION ( #100, #230 ) ;
#104 = MECHANICAL_CONTEXT ( 'NONE', #5, 'mechanical' ) ;
#105 = CALENDAR_DATE ( 2021, 2, 12 ) ;
#106 = EDGE_LOOP ( 'NONE', ( #137 ) ) ;
#107 = LOCAL_TIME ( 13, 56, 1.000000000000000000, #171 ) ;
#108 = DIRECTION ( 'NONE',  ( 4.275831445896958607E-31, 1.000000000000000000, 1.224646799147353207E-16 ) ) ;
#109 = PERSON_AND_ORGANIZATION_ROLE ( 'design_supplier' ) ;
#110 = CARTESIAN_POINT ( 'NONE',  ( 0.0000000000000000000, 0.0000000000000000000, 0.0000000000000000000 ) ) ;
#111 = APPROVAL_DATE_TIME ( #146, #85 ) ;
#112 = PLANE ( 'NONE',  #209 ) ;
#113 = AXIS2_PLACEMENT_3D ( 'NONE', #167, #152, #222 ) ;
#114 = FACE_BOUND ( 'NONE', #41, .T. ) ;
#115 = CARTESIAN_POINT ( 'NONE',  ( 2.793185071074506684E-13, -9.797174393178826052E-15, 80.00000000000000000 ) ) ;
#116 = VERTEX_POINT ( 'NONE', #170 ) ;
#117 = CIRCLE ( 'NONE', #148, 2.105000000000004867 ) ;
#118 = ADVANCED_FACE ( 'NONE', ( #159, #149 ), #238, .T. ) ;
#119 = EDGE_LOOP ( 'NONE', ( #17 ) ) ;
#120 = CARTESIAN_POINT ( 'NONE',  ( 4.253275548873594559E-14, 1.999999999999990452, 12.18186533479475386 ) ) ;
#121 =( GEOMETRIC_REPRESENTATION_CONTEXT ( 3 ) GLOBAL_UNCERTAINTY_ASSIGNED_CONTEXT ( ( #45 ) ) GLOBAL_UNIT_ASSIGNED_CONTEXT ( ( #42, #227, #135 ) ) REPRESENTATION_CONTEXT ( 'NONE', 'WORKASPACE' ) );
#122 = ORIENTED_EDGE ( 'NONE', *, *, #102, .T. ) ;
#123 = PERSON_AND_ORGANIZATION ( #100, #230 ) ;
#124 = ADVANCED_FACE ( 'NONE', ( #201 ), #241, .T. ) ;
#125 = LOCAL_TIME ( 13, 56, 1.000000000000000000, #226 ) ;
#126 = ORIENTED_EDGE ( 'NONE', *, *, #165, .T. ) ;
#127 = APPROVAL_STATUS ( 'not_yet_approved' ) ;
#128 = DIRECTION ( 'NONE',  ( 4.574655449850905615E-31, 1.000000000000000000, 1.287651036206059205E-16 ) ) ;
#129 = LOCAL_TIME ( 13, 56, 1.000000000000000000, #177 ) ;
#130 = CARTESIAN_POINT ( 'NONE',  ( 4.253275548873594559E-14, -1.491848238990049482E-15, 12.18186533479475386 ) ) ;
#131 = DATE_AND_TIME ( #105, #140 ) ;
#132 = DIRECTION ( 'NONE',  ( -3.491481338843133355E-15, 1.224646799147353207E-16, -1.000000000000000000 ) ) ;
#133 = FACE_OUTER_BOUND ( 'NONE', #25, .T. ) ;
#134 = DIRECTION ( 'NONE',  ( -3.491481338843133355E-15, 1.224646799147353207E-16, -1.000000000000000000 ) ) ;
#135 =( NAMED_UNIT ( * ) SI_UNIT ( $, .STERADIAN. ) SOLID_ANGLE_UNIT ( ) );
#136 = VERTEX_POINT ( 'NONE', #120 ) ;
#137 = ORIENTED_EDGE ( 'NONE', *, *, #15, .F. ) ;
#138 = ORIENTED_EDGE ( 'NONE', *, *, #15, .T. ) ;
#139 = CALENDAR_DATE ( 2021, 2, 12 ) ;
#140 = LOCAL_TIME ( 13, 56, 1.000000000000000000, #219 ) ;
#141 = EDGE_LOOP ( 'NONE', ( #126 ) ) ;
#142 = APPROVAL_DATE_TIME ( #131, #80 ) ;
#143 = EDGE_LOOP ( 'NONE', ( #122 ) ) ;
#144 = SECURITY_CLASSIFICATION_LEVEL ( 'unclassified' ) ;
#145 = DIRECTION ( 'NONE',  ( 0.0000000000000000000, 1.000000000000000000, 0.0000000000000000000 ) ) ;
#146 = DATE_AND_TIME ( #7, #129 ) ;
#147 = FACE_BOUND ( 'NONE', #119, .T. ) ;
#148 = AXIS2_PLACEMENT_3D ( 'NONE', #92, #13, #128 ) ;
#149 = FACE_OUTER_BOUND ( 'NONE', #208, .T. ) ;
#150 = DATE_TIME_ROLE ( 'creation_date' ) ;
#151 = CARTESIAN_POINT ( 'NONE',  ( 0.0000000000000000000, 0.0000000000000000000, 0.0000000000000000000 ) ) ;
#152 = DIRECTION ( 'NONE',  ( -3.491481338843133355E-15, 1.224646799147353207E-16, -1.000000000000000000 ) ) ;
#153 = PRODUCT_DEFINITION_FORMATION_WITH_SPECIFIED_SOURCE ( 'ANY', '', #193, .NOT_KNOWN. ) ;
#154 = ORIENTED_EDGE ( 'NONE', *, *, #234, .T. ) ;
#155 = ADVANCED_FACE ( 'NONE', ( #35, #114 ), #70, .T. ) ;
#156 = CC_DESIGN_SECURITY_CLASSIFICATION ( #27, ( #153 ) ) ;
#157 = SHAPE_DEFINITION_REPRESENTATION ( #11, #34 ) ;
#158 = AXIS2_PLACEMENT_3D ( 'NONE', #151, #232, #29 ) ;
#159 = FACE_OUTER_BOUND ( 'NONE', #194, .T. ) ;
#160 = DATE_AND_TIME ( #24, #168 ) ;
#161 = DIRECTION ( 'NONE',  ( 0.0000000000000000000, 1.000000000000000000, 0.0000000000000000000 ) ) ;
#162 = DATE_AND_TIME ( #180, #107 ) ;
#163 = CARTESIAN_POINT ( 'NONE',  ( 2.793185071074506684E-13, 1.199807826129472128E-32, 80.00000000000000000 ) ) ;
#164 = AXIS2_PLACEMENT_3D ( 'NONE', #110, #239, #89 ) ;
#165 = EDGE_CURVE ( 'NONE', #205, #205, #117, .T. ) ;
#166 = FACE_OUTER_BOUND ( 'NONE', #206, .T. ) ;
#167 = CARTESIAN_POINT ( 'NONE',  ( -3.645146307627165230E-31, 1.278545214719236375E-32, -1.044011396273120796E-16 ) ) ;
#168 = LOCAL_TIME ( 13, 56, 1.000000000000000000, #199 ) ;
#169 = CC_DESIGN_PERSON_AND_ORGANIZATION_ASSIGNMENT ( #229, #97, ( #64 ) ) ;
#170 = CARTESIAN_POINT ( 'NONE',  ( 0.0000000000000000000, 1.705000000000003624, 0.0000000000000000000 ) ) ;
#171 = COORDINATED_UNIVERSAL_TIME_OFFSET ( 1, 0, .AHEAD. ) ;
#172 = DIRECTION ( 'NONE',  ( 0.0000000000000000000, 1.000000000000000000, 0.0000000000000000000 ) ) ;
#173 = CC_DESIGN_DATE_AND_TIME_ASSIGNMENT ( #160, #30, ( #27 ) ) ;
#174 = AXIS2_PLACEMENT_3D ( 'NONE', #19, #197, #203 ) ;
#175 = VERTEX_POINT ( 'NONE', #243 ) ;
#176 = EDGE_LOOP ( 'NONE', ( #213 ) ) ;
#177 = COORDINATED_UNIVERSAL_TIME_OFFSET ( 1, 0, .AHEAD. ) ;
#178 = DESIGN_CONTEXT ( 'detailed design', #18, 'design' ) ;
#179 = ORIENTED_EDGE ( 'NONE', *, *, #165, .F. ) ;
#180 = CALENDAR_DATE ( 2021, 2, 12 ) ;
#181 = CARTESIAN_POINT ( 'NONE',  ( 4.189777606611760026E-14, 1.578497171251606802E-32, 12.00000000000000000 ) ) ;
#182 = ADVANCED_FACE ( 'NONE', ( #215 ), #52, .F. ) ;
#183 = ADVANCED_FACE ( 'NONE', ( #235, #147 ), #62, .T. ) ;
#184 = CARTESIAN_POINT ( 'NONE',  ( 4.189777606611760026E-14, 1.578497171251606802E-32, 12.00000000000000000 ) ) ;
#185 = PERSON_AND_ORGANIZATION ( #100, #230 ) ;
#186 = DIRECTION ( 'NONE',  ( -3.491481338843133355E-15, 1.224646799147353207E-16, -1.000000000000000000 ) ) ;
#187 = CIRCLE ( 'NONE', #58, 1.999999999999991784 ) ;
#188 = DIRECTION ( 'NONE',  ( 0.0000000000000000000, 1.000000000000000000, 0.0000000000000000000 ) ) ;
#189 = DIRECTION ( 'NONE',  ( -3.491481338843133355E-15, 1.224646799147353207E-16, -1.000000000000000000 ) ) ;
#190 = EDGE_CURVE ( 'NONE', #60, #60, #202, .T. ) ;
#191 = ORIENTED_EDGE ( 'NONE', *, *, #61, .T. ) ;
#192 = DIRECTION ( 'NONE',  ( -3.491481338843133355E-15, 1.224646799147353207E-16, -1.000000000000000000 ) ) ;
#193 = PRODUCT ( '321647', '321647', '', ( #104 ) ) ;
#194 = EDGE_LOOP ( 'NONE', ( #51 ) ) ;
#195 = CIRCLE ( 'NONE', #36, 2.000000000000000888 ) ;
#196 = CC_DESIGN_PERSON_AND_ORGANIZATION_ASSIGNMENT ( #90, #6, ( #153 ) ) ;
#197 = DIRECTION ( 'NONE',  ( -3.491481338843133355E-15, 1.224646799147353207E-16, -1.000000000000000000 ) ) ;
#198 = DIRECTION ( 'NONE',  ( -3.491481338843133355E-15, 1.224646799147353207E-16, -1.000000000000000000 ) ) ;
#199 = COORDINATED_UNIVERSAL_TIME_OFFSET ( 1, 0, .AHEAD. ) ;
#200 = DIRECTION ( 'NONE',  ( -4.275831445896958607E-31, -1.000000000000000000, -1.224646799147353207E-16 ) ) ;
#201 = FACE_OUTER_BOUND ( 'NONE', #176, .T. ) ;
#202 = CIRCLE ( 'NONE', #98, 2.105000000000004867 ) ;
#203 = DIRECTION ( 'NONE',  ( 0.0000000000000000000, 1.000000000000000000, 0.0000000000000000000 ) ) ;
#204 = AXIS2_PLACEMENT_3D ( 'NONE', #57, #134, #71 ) ;
#205 = VERTEX_POINT ( 'NONE', #40 ) ;
#206 = EDGE_LOOP ( 'NONE', ( #179 ) ) ;
#207 = VERTEX_POINT ( 'NONE', #63 ) ;
#208 = EDGE_LOOP ( 'NONE', ( #154 ) ) ;
#209 = AXIS2_PLACEMENT_3D ( 'NONE', #181, #72, #28 ) ;
#210 = AXIS2_PLACEMENT_3D ( 'NONE', #184, #33, #59 ) ;
#211 = ADVANCED_FACE ( 'NONE', ( #53 ), #31, .T. ) ;
#212 = ORIENTED_EDGE ( 'NONE', *, *, #234, .F. ) ;
#213 = ORIENTED_EDGE ( 'NONE', *, *, #190, .F. ) ;
#214 = DIRECTION ( 'NONE',  ( 0.0000000000000000000, 0.0000000000000000000, 1.000000000000000000 ) ) ;
#215 = FACE_OUTER_BOUND ( 'NONE', #106, .T. ) ;
#216 = APPROVAL ( #87, 'UNSPECIFIED' ) ;
#217 = CIRCLE ( 'NONE', #32, 1.705000000000003624 ) ;
#218 = CARTESIAN_POINT ( 'NONE',  ( -7.290292615254330460E-31, 2.557090429438472750E-32, -2.088022792546241593E-16 ) ) ;
#219 = COORDINATED_UNIVERSAL_TIME_OFFSET ( 1, 0, .AHEAD. ) ;
#220 = DIRECTION ( 'NONE',  ( 3.491481338843133355E-15, -1.224646799147353207E-16, 1.000000000000000000 ) ) ;
#221 = CARTESIAN_POINT ( 'NONE',  ( -7.290292615254330460E-31, 2.557090429438472750E-32, -2.088022792546241593E-16 ) ) ;
#222 = DIRECTION ( 'NONE',  ( 4.275831445896958607E-31, 1.000000000000000000, 1.224646799147353207E-16 ) ) ;
#223 = CARTESIAN_POINT ( 'NONE',  ( 2.779219145719134403E-13, -9.748188521212932624E-15, 79.60000000000000853 ) ) ;
#224 = APPROVAL_PERSON_ORGANIZATION ( #47, #216, #20 ) ;
#225 = EDGE_LOOP ( 'NONE', ( #1 ) ) ;
#226 = COORDINATED_UNIVERSAL_TIME_OFFSET ( 1, 0, .AHEAD. ) ;
#227 =( NAMED_UNIT ( * ) PLANE_ANGLE_UNIT ( ) SI_UNIT ( $, .RADIAN. ) );
#228 = APPROVAL_PERSON_ORGANIZATION ( #103, #85, #233 ) ;
#229 = PERSON_AND_ORGANIZATION ( #100, #230 ) ;
#230 = ORGANIZATION ( 'UNSPECIFIED', 'UNSPECIFIED', '' ) ;
#231 = MANIFOLD_SOLID_BREP ( 'Corps-Déplacer/Copier1[1]', #12 ) ;
#232 = DIRECTION ( 'NONE',  ( -3.491481338843133355E-15, 1.224646799147353207E-16, -1.000000000000000000 ) ) ;
#233 = APPROVAL_ROLE ( '' ) ;
#234 = EDGE_CURVE ( 'NONE', #175, #175, #195, .T. ) ;
#235 = FACE_OUTER_BOUND ( 'NONE', #141, .T. ) ;
#236 = APPROVAL_STATUS ( 'not_yet_approved' ) ;
#237 = AXIS2_PLACEMENT_3D ( 'NONE', #163, #55, #108 ) ;
#238 = CYLINDRICAL_SURFACE ( 'NONE', #158, 1.999999999999996669 ) ;
#239 = DIRECTION ( 'NONE',  ( -3.491481338843133355E-15, 1.224646799147353207E-16, -1.000000000000000000 ) ) ;
#240 = CC_DESIGN_DATE_AND_TIME_ASSIGNMENT ( #162, #150, ( #64 ) ) ;
#241 = PLANE ( 'NONE',  #210 ) ;
#242 = AXIS2_PLACEMENT_3D ( 'NONE', #218, #220, #200 ) ;
#243 = CARTESIAN_POINT ( 'NONE',  ( 2.779219145719134403E-13, 1.999999999999991340, 79.60000000000000853 ) ) ;
ENDSEC;
END-ISO-10303-21;
