ISO-10303-21;
HEADER;
FILE_DESCRIPTION (( 'STEP AP203' ),
    '1' );
FILE_NAME ('321646.step',
    '2021-12-02T12:56:00',
    ( '' ),
    ( '' ),
    'SwSTEP 2.0',
    'SolidWorks 2019',
    '' );
FILE_SCHEMA (( 'CONFIG_CONTROL_DESIGN' ));
ENDSEC;

DATA;
#1 = APPROVAL_STATUS ( 'not_yet_approved' ) ;
#2 = AXIS2_PLACEMENT_3D ( 'NONE', #179, #89, #144 ) ;
#3 = UNCERTAINTY_MEASURE_WITH_UNIT (LENGTH_MEASURE( 1.000000000000000082E-05 ), #205, 'distance_accuracy_value', 'NONE');
#4 = DIRECTION ( 'NONE',  ( -4.275831445896958607E-31, -1.000000000000000000, -1.224646799147353207E-16 ) ) ;
#5 = EDGE_LOOP ( 'NONE', ( #46 ) ) ;
#6 = ORIENTED_EDGE ( 'NONE', *, *, #189, .T. ) ;
#7 = ORIENTED_EDGE ( 'NONE', *, *, #204, .F. ) ;
#8 = AXIS2_PLACEMENT_3D ( 'NONE', #136, #44, #62 ) ;
#9 = EDGE_LOOP ( 'NONE', ( #175 ) ) ;
#10 = CARTESIAN_POINT ( 'NONE',  ( -7.268913458024845746E-31, 2.549591630525163955E-32, -2.081899558550505210E-16 ) ) ;
#11 = CARTESIAN_POINT ( 'NONE',  ( 4.189777606611760026E-14, 2.100000000000003642, 12.00000000000000000 ) ) ;
#12 = AXIS2_PLACEMENT_3D ( 'NONE', #31, #167, #143 ) ;
#13 = CARTESIAN_POINT ( 'NONE',  ( 0.0000000000000000000, 0.0000000000000000000, 0.0000000000000000000 ) ) ;
#14 = CYLINDRICAL_SURFACE ( 'NONE', #15, 2.100000000000004974 ) ;
#15 = AXIS2_PLACEMENT_3D ( 'NONE', #219, #72, #198 ) ;
#16 = PERSON_AND_ORGANIZATION_ROLE ( 'design_supplier' ) ;
#17 = DATE_AND_TIME ( #38, #142 ) ;
#18 = DATE_AND_TIME ( #190, #91 ) ;
#19 = MANIFOLD_SOLID_BREP ( 'Corps-Déplacer/Copier1[2]', #151 ) ;
#20 =( NAMED_UNIT ( * ) PLANE_ANGLE_UNIT ( ) SI_UNIT ( $, .RADIAN. ) );
#21 = SECURITY_CLASSIFICATION ( '', '', #203 ) ;
#22 = PERSON_AND_ORGANIZATION ( #237, #34 ) ;
#23 = PLANE ( 'NONE',  #63 ) ;
#24 = ADVANCED_FACE ( 'NONE', ( #215, #47 ), #49, .T. ) ;
#25 = EDGE_LOOP ( 'NONE', ( #139 ) ) ;
#26 = ORIENTED_EDGE ( 'NONE', *, *, #101, .F. ) ;
#27 = ORIENTED_EDGE ( 'NONE', *, *, #137, .F. ) ;
#28 = CARTESIAN_POINT ( 'NONE',  ( 2.793185071074506684E-13, -9.797174393178826052E-15, 80.00000000000000000 ) ) ;
#29 = APPLICATION_CONTEXT ( 'configuration controlled 3d designs of mechanical parts and assemblies' ) ;
#30 = FACE_BOUND ( 'NONE', #102, .T. ) ;
#31 = CARTESIAN_POINT ( 'NONE',  ( 2.779219145719134403E-13, -9.748188521212932624E-15, 79.60000000000000853 ) ) ;
#32 = CARTESIAN_POINT ( 'NONE',  ( 4.250251837337317055E-14, 1.999999999999990452, 12.17320508075691166 ) ) ;
#33 = AXIS2_PLACEMENT_3D ( 'NONE', #28, #86, #209 ) ;
#34 = ORGANIZATION ( 'UNSPECIFIED', 'UNSPECIFIED', '' ) ;
#35 = CARTESIAN_POINT ( 'NONE',  ( 2.779219145719134403E-13, 1.999999999999991340, 79.60000000000000853 ) ) ;
#36 = CARTESIAN_POINT ( 'NONE',  ( 2.793185071074506684E-13, -9.797174393178826052E-15, 80.00000000000000000 ) ) ;
#37 = APPROVAL_ROLE ( '' ) ;
#38 = CALENDAR_DATE ( 2021, 2, 12 ) ;
#39 = APPLICATION_PROTOCOL_DEFINITION ( 'international standard', 'config_control_design', 1994, #124 ) ;
#40 = ADVANCED_FACE ( 'NONE', ( #160, #176 ), #225, .T. ) ;
#41 = COORDINATED_UNIVERSAL_TIME_OFFSET ( 1, 0, .AHEAD. ) ;
#42 = CONICAL_SURFACE ( 'NONE', #98, 1.600000000000000977, 0.7853981633974512766 ) ;
#43 = CARTESIAN_POINT ( 'NONE',  ( 4.189777606611760026E-14, -1.469576158976823947E-15, 12.00000000000000000 ) ) ;
#44 = DIRECTION ( 'NONE',  ( -3.491481338843133355E-15, 1.224646799147353207E-16, -1.000000000000000000 ) ) ;
#45 = CARTESIAN_POINT ( 'NONE',  ( 4.250251837337317055E-14, -1.490787663751324832E-15, 12.17320508075691166 ) ) ;
#46 = ORIENTED_EDGE ( 'NONE', *, *, #240, .F. ) ;
#47 = FACE_OUTER_BOUND ( 'NONE', #61, .T. ) ;
#48 = DIRECTION ( 'NONE',  ( 4.275831445896958607E-31, 1.000000000000000000, 1.224646799147353207E-16 ) ) ;
#49 = CONICAL_SURFACE ( 'NONE', #81, 2.100000000000004974, 0.5235987755982987046 ) ;
#50 = AXIS2_PLACEMENT_3D ( 'NONE', #10, #235, #69 ) ;
#51 = CC_DESIGN_DATE_AND_TIME_ASSIGNMENT ( #18, #202, ( #214 ) ) ;
#52 = DIRECTION ( 'NONE',  ( 4.585547486636264914E-31, 1.000000000000000000, 1.290716872006549822E-16 ) ) ;
#53 = AXIS2_PLACEMENT_3D ( 'NONE', #45, #120, #123 ) ;
#54 = PERSON_AND_ORGANIZATION_ROLE ( 'creator' ) ;
#55 = ADVANCED_FACE ( 'NONE', ( #196 ), #158, .T. ) ;
#56 = SHAPE_DEFINITION_REPRESENTATION ( #236, #59 ) ;
#57 = PERSON_AND_ORGANIZATION ( #237, #34 ) ;
#58 = ORIENTED_EDGE ( 'NONE', *, *, #231, .T. ) ;
#59 = ADVANCED_BREP_SHAPE_REPRESENTATION ( '321646', ( #186, #19, #185 ), #147 ) ;
#60 = PRODUCT ( '321646', '321646', '', ( #113 ) ) ;
#61 = EDGE_LOOP ( 'NONE', ( #27 ) ) ;
#62 = DIRECTION ( 'NONE',  ( 0.0000000000000000000, 1.000000000000000000, 0.0000000000000000000 ) ) ;
#63 = AXIS2_PLACEMENT_3D ( 'NONE', #116, #97, #4 ) ;
#64 = DESIGN_CONTEXT ( 'detailed design', #29, 'design' ) ;
#65 = ORIENTED_EDGE ( 'NONE', *, *, #231, .F. ) ;
#66 = APPROVAL ( #1, 'UNSPECIFIED' ) ;
#67 = DIRECTION ( 'NONE',  ( -3.491481338843133355E-15, 1.224646799147353207E-16, -1.000000000000000000 ) ) ;
#68 = CARTESIAN_POINT ( 'NONE',  ( 1.396592535537252750E-15, -4.898587196589410610E-17, 0.3999999999999998002 ) ) ;
#69 = DIRECTION ( 'NONE',  ( 4.275831445896958607E-31, 1.000000000000000000, 1.224646799147353207E-16 ) ) ;
#70 = CC_DESIGN_PERSON_AND_ORGANIZATION_ASSIGNMENT ( #155, #54, ( #214 ) ) ;
#71 = CIRCLE ( 'NONE', #156, 2.100000000000004974 ) ;
#72 = DIRECTION ( 'NONE',  ( -3.491481338843133355E-15, 1.224646799147353207E-16, -1.000000000000000000 ) ) ;
#73 = CARTESIAN_POINT ( 'NONE',  ( 0.0000000000000000000, 1.700000000000003730, 0.0000000000000000000 ) ) ;
#74 = VERTEX_POINT ( 'NONE', #32 ) ;
#75 = CC_DESIGN_SECURITY_CLASSIFICATION ( #21, ( #76 ) ) ;
#76 = PRODUCT_DEFINITION_FORMATION_WITH_SPECIFIED_SOURCE ( 'ANY', '', #60, .NOT_KNOWN. ) ;
#77 = CALENDAR_DATE ( 2021, 2, 12 ) ;
#78 = APPROVAL_PERSON_ORGANIZATION ( #187, #165, #37 ) ;
#79 = DATE_AND_TIME ( #93, #108 ) ;
#80 = APPROVAL_DATE_TIME ( #17, #94 ) ;
#81 = AXIS2_PLACEMENT_3D ( 'NONE', #43, #85, #138 ) ;
#82 = FACE_OUTER_BOUND ( 'NONE', #178, .T. ) ;
#83 = CARTESIAN_POINT ( 'NONE',  ( -7.268913458024845746E-31, 2.549591630525163955E-32, -2.081899558550505210E-16 ) ) ;
#84 = EDGE_LOOP ( 'NONE', ( #104 ) ) ;
#85 = DIRECTION ( 'NONE',  ( -3.491481338843133355E-15, 1.224646799147353207E-16, -1.000000000000000000 ) ) ;
#86 = DIRECTION ( 'NONE',  ( -3.491481338843133355E-15, 1.224646799147353207E-16, -1.000000000000000000 ) ) ;
#87 = DIRECTION ( 'NONE',  ( 0.0000000000000000000, 1.000000000000000000, 0.0000000000000000000 ) ) ;
#88 = CARTESIAN_POINT ( 'NONE',  ( 1.396592535537253737E-15, 2.100000000000004974, 0.4000000000000000777 ) ) ;
#89 = DIRECTION ( 'NONE',  ( 3.491481338843133355E-15, -1.224646799147353207E-16, 1.000000000000000000 ) ) ;
#90 = DIRECTION ( 'NONE',  ( 0.0000000000000000000, 1.000000000000000000, 0.0000000000000000000 ) ) ;
#91 = LOCAL_TIME ( 13, 56, 0.0000000000000000000, #226 ) ;
#92 = DATE_TIME_ROLE ( 'classification_date' ) ;
#93 = CALENDAR_DATE ( 2021, 2, 12 ) ;
#94 = APPROVAL ( #152, 'UNSPECIFIED' ) ;
#95 = APPROVAL_STATUS ( 'not_yet_approved' ) ;
#96 = APPROVAL_ROLE ( '' ) ;
#97 = DIRECTION ( 'NONE',  ( 3.491481338843133355E-15, -1.224646799147353207E-16, 1.000000000000000000 ) ) ;
#98 = AXIS2_PLACEMENT_3D ( 'NONE', #36, #234, #90 ) ;
#99 = EDGE_LOOP ( 'NONE', ( #174 ) ) ;
#100 = DIRECTION ( 'NONE',  ( -3.491481338843133355E-15, 1.224646799147353207E-16, -1.000000000000000000 ) ) ;
#101 = EDGE_CURVE ( 'NONE', #181, #181, #107, .T. ) ;
#102 = EDGE_LOOP ( 'NONE', ( #122 ) ) ;
#103 = AXIS2_PLACEMENT_3D ( 'NONE', #13, #217, #48 ) ;
#104 = ORIENTED_EDGE ( 'NONE', *, *, #240, .T. ) ;
#105 = DIRECTION ( 'NONE',  ( -3.491481338843133355E-15, 1.224646799147353207E-16, -1.000000000000000000 ) ) ;
#106 = CARTESIAN_POINT ( 'NONE',  ( 4.189777606611760026E-14, -1.469576158976823947E-15, 12.00000000000000000 ) ) ;
#107 = CIRCLE ( 'NONE', #33, 1.600000000000000977 ) ;
#108 = LOCAL_TIME ( 13, 56, 0.0000000000000000000, #171 ) ;
#109 = FACE_OUTER_BOUND ( 'NONE', #25, .T. ) ;
#110 = APPLICATION_PROTOCOL_DEFINITION ( 'international standard', 'config_control_design', 1994, #29 ) ;
#111 = CC_DESIGN_PERSON_AND_ORGANIZATION_ASSIGNMENT ( #150, #206, ( #60 ) ) ;
#112 = PERSON_AND_ORGANIZATION_ROLE ( 'classification_officer' ) ;
#113 = MECHANICAL_CONTEXT ( 'NONE', #124, 'mechanical' ) ;
#114 = CIRCLE ( 'NONE', #8, 2.100000000000004974 ) ;
#115 = CARTESIAN_POINT ( 'NONE',  ( 0.0000000000000000000, 0.0000000000000000000, 0.0000000000000000000 ) ) ;
#116 = CARTESIAN_POINT ( 'NONE',  ( 4.189777606611760026E-14, 1.574747771794952404E-32, 12.00000000000000000 ) ) ;
#117 = ORIENTED_EDGE ( 'NONE', *, *, #154, .F. ) ;
#118 = CC_DESIGN_DATE_AND_TIME_ASSIGNMENT ( #79, #92, ( #21 ) ) ;
#119 = ADVANCED_FACE ( 'NONE', ( #210 ), #23, .F. ) ;
#120 = DIRECTION ( 'NONE',  ( -3.491481338843133355E-15, 1.224646799147353207E-16, -1.000000000000000000 ) ) ;
#121 = EDGE_LOOP ( 'NONE', ( #58 ) ) ;
#122 = ORIENTED_EDGE ( 'NONE', *, *, #101, .T. ) ;
#123 = DIRECTION ( 'NONE',  ( 0.0000000000000000000, 1.000000000000000000, 0.0000000000000000000 ) ) ;
#124 = APPLICATION_CONTEXT ( 'configuration controlled 3d designs of mechanical parts and assemblies' ) ;
#125 = VERTEX_POINT ( 'NONE', #11 ) ;
#126 = ADVANCED_FACE ( 'NONE', ( #82 ), #157, .F. ) ;
#127 = CARTESIAN_POINT ( 'NONE',  ( 2.793185071074506684E-13, 1.599999999999991207, 80.00000000000000000 ) ) ;
#128 = CLOSED_SHELL ( 'NONE', ( #119, #24, #195, #172, #126 ) ) ;
#129 = APPROVAL_PERSON_ORGANIZATION ( #132, #94, #96 ) ;
#130 = PERSON_AND_ORGANIZATION_ROLE ( 'creator' ) ;
#131 = CC_DESIGN_APPROVAL ( #66, ( #21 ) ) ;
#132 = PERSON_AND_ORGANIZATION ( #237, #34 ) ;
#133 = DIRECTION ( 'NONE',  ( 0.0000000000000000000, 0.0000000000000000000, 1.000000000000000000 ) ) ;
#134 = LOCAL_TIME ( 13, 56, 0.0000000000000000000, #243 ) ;
#135 = ORIENTED_EDGE ( 'NONE', *, *, #204, .T. ) ;
#136 = CARTESIAN_POINT ( 'NONE',  ( 4.189777606611760026E-14, -1.469576158976823947E-15, 12.00000000000000000 ) ) ;
#137 = EDGE_CURVE ( 'NONE', #125, #125, #114, .T. ) ;
#138 = DIRECTION ( 'NONE',  ( 0.0000000000000000000, 1.000000000000000000, 0.0000000000000000000 ) ) ;
#139 = ORIENTED_EDGE ( 'NONE', *, *, #189, .F. ) ;
#140 = EDGE_LOOP ( 'NONE', ( #135 ) ) ;
#141 = CYLINDRICAL_SURFACE ( 'NONE', #103, 1.999999999999996669 ) ;
#142 = LOCAL_TIME ( 13, 56, 0.0000000000000000000, #170 ) ;
#143 = DIRECTION ( 'NONE',  ( 0.0000000000000000000, 1.000000000000000000, 0.0000000000000000000 ) ) ;
#144 = DIRECTION ( 'NONE',  ( -4.275831445896958607E-31, -1.000000000000000000, -1.224646799147353207E-16 ) ) ;
#145 = FACE_OUTER_BOUND ( 'NONE', #5, .T. ) ;
#146 = VERTEX_POINT ( 'NONE', #88 ) ;
#147 =( GEOMETRIC_REPRESENTATION_CONTEXT ( 3 ) GLOBAL_UNCERTAINTY_ASSIGNED_CONTEXT ( ( #3 ) ) GLOBAL_UNIT_ASSIGNED_CONTEXT ( ( #205, #20, #188 ) ) REPRESENTATION_CONTEXT ( 'NONE', 'WORKASPACE' ) );
#148 = CC_DESIGN_PERSON_AND_ORGANIZATION_ASSIGNMENT ( #22, #130, ( #76 ) ) ;
#149 = DATE_AND_TIME ( #77, #134 ) ;
#150 = PERSON_AND_ORGANIZATION ( #237, #34 ) ;
#151 = CLOSED_SHELL ( 'NONE', ( #180, #224, #55, #40 ) ) ;
#152 = APPROVAL_STATUS ( 'not_yet_approved' ) ;
#153 = CC_DESIGN_PERSON_AND_ORGANIZATION_ASSIGNMENT ( #222, #112, ( #21 ) ) ;
#154 = EDGE_CURVE ( 'NONE', #74, #74, #218, .T. ) ;
#155 = PERSON_AND_ORGANIZATION ( #237, #34 ) ;
#156 = AXIS2_PLACEMENT_3D ( 'NONE', #68, #162, #52 ) ;
#157 = PLANE ( 'NONE',  #199 ) ;
#158 = PLANE ( 'NONE',  #212 ) ;
#159 = EDGE_LOOP ( 'NONE', ( #65 ) ) ;
#160 = FACE_OUTER_BOUND ( 'NONE', #191, .T. ) ;
#161 = DIRECTION ( 'NONE',  ( 3.491481338843133355E-15, -1.224646799147353207E-16, 1.000000000000000000 ) ) ;
#162 = DIRECTION ( 'NONE',  ( -3.491481338843133355E-15, 1.224646799147353207E-16, -1.000000000000000000 ) ) ;
#163 = CC_DESIGN_PERSON_AND_ORGANIZATION_ASSIGNMENT ( #57, #16, ( #76 ) ) ;
#164 = FACE_OUTER_BOUND ( 'NONE', #140, .T. ) ;
#165 = APPROVAL ( #95, 'UNSPECIFIED' ) ;
#166 = CARTESIAN_POINT ( 'NONE',  ( 4.189777606611760026E-14, 2.100000000000003642, 12.00000000000000000 ) ) ;
#167 = DIRECTION ( 'NONE',  ( -3.491481338843133355E-15, 1.224646799147353207E-16, -1.000000000000000000 ) ) ;
#168 = DIRECTION ( 'NONE',  ( 1.000000000000000000, 0.0000000000000000000, 0.0000000000000000000 ) ) ;
#169 = PERSON_AND_ORGANIZATION ( #237, #34 ) ;
#170 = COORDINATED_UNIVERSAL_TIME_OFFSET ( 1, 0, .AHEAD. ) ;
#171 = COORDINATED_UNIVERSAL_TIME_OFFSET ( 1, 0, .AHEAD. ) ;
#172 = ADVANCED_FACE ( 'NONE', ( #145, #30 ), #42, .T. ) ;
#173 = APPROVAL_PERSON_ORGANIZATION ( #169, #66, #227 ) ;
#174 = ORIENTED_EDGE ( 'NONE', *, *, #154, .T. ) ;
#175 = ORIENTED_EDGE ( 'NONE', *, *, #137, .T. ) ;
#176 = FACE_BOUND ( 'NONE', #159, .T. ) ;
#177 = EDGE_LOOP ( 'NONE', ( #7 ) ) ;
#178 = EDGE_LOOP ( 'NONE', ( #26 ) ) ;
#179 = CARTESIAN_POINT ( 'NONE',  ( 4.189777606611760026E-14, 1.574747771794952404E-32, 12.00000000000000000 ) ) ;
#180 = ADVANCED_FACE ( 'NONE', ( #164, #109 ), #14, .T. ) ;
#181 = VERTEX_POINT ( 'NONE', #127 ) ;
#182 = AXIS2_PLACEMENT_3D ( 'NONE', #83, #161, #194 ) ;
#183 = VERTEX_POINT ( 'NONE', #166 ) ;
#184 = CALENDAR_DATE ( 2021, 2, 12 ) ;
#185 = AXIS2_PLACEMENT_3D ( 'NONE', #115, #133, #168 ) ;
#186 = MANIFOLD_SOLID_BREP ( 'Corps-Déplacer/Copier1[1]', #128 ) ;
#187 = PERSON_AND_ORGANIZATION ( #237, #34 ) ;
#188 =( NAMED_UNIT ( * ) SI_UNIT ( $, .STERADIAN. ) SOLID_ANGLE_UNIT ( ) );
#189 = EDGE_CURVE ( 'NONE', #146, #146, #71, .T. ) ;
#190 = CALENDAR_DATE ( 2021, 2, 12 ) ;
#191 = EDGE_LOOP ( 'NONE', ( #6 ) ) ;
#192 = CC_DESIGN_APPROVAL ( #94, ( #214 ) ) ;
#193 = PRODUCT_RELATED_PRODUCT_CATEGORY ( 'detail', '', ( #60 ) ) ;
#194 = DIRECTION ( 'NONE',  ( -4.275831445896958607E-31, -1.000000000000000000, -1.224646799147353207E-16 ) ) ;
#195 = ADVANCED_FACE ( 'NONE', ( #238, #220 ), #141, .T. ) ;
#196 = FACE_OUTER_BOUND ( 'NONE', #121, .T. ) ;
#197 = PLANE ( 'NONE',  #2 ) ;
#198 = DIRECTION ( 'NONE',  ( 4.275831445896958607E-31, 1.000000000000000000, 1.224646799147353454E-16 ) ) ;
#199 = AXIS2_PLACEMENT_3D ( 'NONE', #211, #100, #230 ) ;
#200 = CIRCLE ( 'NONE', #12, 2.000000000000000888 ) ;
#201 = VERTEX_POINT ( 'NONE', #35 ) ;
#202 = DATE_TIME_ROLE ( 'creation_date' ) ;
#203 = SECURITY_CLASSIFICATION_LEVEL ( 'unclassified' ) ;
#204 = EDGE_CURVE ( 'NONE', #183, #183, #242, .T. ) ;
#205 =( LENGTH_UNIT ( ) NAMED_UNIT ( * ) SI_UNIT ( .MILLI., .METRE. ) );
#206 = PERSON_AND_ORGANIZATION_ROLE ( 'design_owner' ) ;
#207 = APPROVAL_DATE_TIME ( #228, #165 ) ;
#208 = CC_DESIGN_APPROVAL ( #165, ( #76 ) ) ;
#209 = DIRECTION ( 'NONE',  ( 0.0000000000000000000, 1.000000000000000000, 0.0000000000000000000 ) ) ;
#210 = FACE_OUTER_BOUND ( 'NONE', #9, .T. ) ;
#211 = CARTESIAN_POINT ( 'NONE',  ( 2.793185071074506684E-13, 1.199807826129472128E-32, 80.00000000000000000 ) ) ;
#212 = AXIS2_PLACEMENT_3D ( 'NONE', #233, #67, #216 ) ;
#213 = LOCAL_TIME ( 13, 56, 0.0000000000000000000, #41 ) ;
#214 = PRODUCT_DEFINITION ( 'UNKNOWN', '', #76, #64 ) ;
#215 = FACE_BOUND ( 'NONE', #99, .T. ) ;
#216 = DIRECTION ( 'NONE',  ( 4.275831445896958607E-31, 1.000000000000000000, 1.224646799147353207E-16 ) ) ;
#217 = DIRECTION ( 'NONE',  ( -3.491481338843133355E-15, 1.224646799147353207E-16, -1.000000000000000000 ) ) ;
#218 = CIRCLE ( 'NONE', #53, 1.999999999999991784 ) ;
#219 = CARTESIAN_POINT ( 'NONE',  ( 0.0000000000000000000, 0.0000000000000000000, 0.0000000000000000000 ) ) ;
#220 = FACE_OUTER_BOUND ( 'NONE', #84, .T. ) ;
#221 = AXIS2_PLACEMENT_3D ( 'NONE', #106, #105, #87 ) ;
#222 = PERSON_AND_ORGANIZATION ( #237, #34 ) ;
#223 = APPROVAL_DATE_TIME ( #149, #66 ) ;
#224 = ADVANCED_FACE ( 'NONE', ( #241 ), #197, .T. ) ;
#225 = CONICAL_SURFACE ( 'NONE', #182, 1.700000000000003730, 0.7853981633974498333 ) ;
#226 = COORDINATED_UNIVERSAL_TIME_OFFSET ( 1, 0, .AHEAD. ) ;
#227 = APPROVAL_ROLE ( '' ) ;
#228 = DATE_AND_TIME ( #184, #213 ) ;
#229 = CIRCLE ( 'NONE', #50, 1.700000000000003730 ) ;
#230 = DIRECTION ( 'NONE',  ( 4.275831445896958607E-31, 1.000000000000000000, 1.224646799147353207E-16 ) ) ;
#231 = EDGE_CURVE ( 'NONE', #239, #239, #229, .T. ) ;
#232 = EDGE_LOOP ( 'NONE', ( #117 ) ) ;
#233 = CARTESIAN_POINT ( 'NONE',  ( -3.634456729012422873E-31, 1.274795815262581977E-32, -1.040949779275252605E-16 ) ) ;
#234 = DIRECTION ( 'NONE',  ( -3.491481338843133355E-15, 1.224646799147353207E-16, -1.000000000000000000 ) ) ;
#235 = DIRECTION ( 'NONE',  ( -3.491481338843133355E-15, 1.224646799147353207E-16, -1.000000000000000000 ) ) ;
#236 = PRODUCT_DEFINITION_SHAPE ( 'NONE', 'NONE',  #214 ) ;
#237 = PERSON ( 'UNSPECIFIED', 'UNSPECIFIED', 'UNSPECIFIED', ('UNSPECIFIED'), ('UNSPECIFIED'), ('UNSPECIFIED') ) ;
#238 = FACE_OUTER_BOUND ( 'NONE', #232, .T. ) ;
#239 = VERTEX_POINT ( 'NONE', #73 ) ;
#240 = EDGE_CURVE ( 'NONE', #201, #201, #200, .T. ) ;
#241 = FACE_OUTER_BOUND ( 'NONE', #177, .T. ) ;
#242 = CIRCLE ( 'NONE', #221, 2.100000000000004974 ) ;
#243 = COORDINATED_UNIVERSAL_TIME_OFFSET ( 1, 0, .AHEAD. ) ;
ENDSEC;
END-ISO-10303-21;
