ISO-10303-21;
HEADER;
FILE_DESCRIPTION (( 'STEP AP203' ),
    '1' );
FILE_NAME ('321645.step',
    '2021-12-02T12:55:59',
    ( '' ),
    ( '' ),
    'SwSTEP 2.0',
    'SolidWorks 2019',
    '' );
FILE_SCHEMA (( 'CONFIG_CONTROL_DESIGN' ));
ENDSEC;

DATA;
#1 = CARTESIAN_POINT ( 'NONE',  ( 4.247228125801039551E-14, -1.489727088512599788E-15, 12.16454482671906590 ) ) ;
#2 = AXIS2_PLACEMENT_3D ( 'NONE', #221, #53, #102 ) ;
#3 = CARTESIAN_POINT ( 'NONE',  ( 4.189777606611760026E-14, 2.095000000000004192, 12.00000000000000000 ) ) ;
#4 = DIRECTION ( 'NONE',  ( 3.491481338843133355E-15, -1.224646799147353207E-16, 1.000000000000000000 ) ) ;
#5 = VERTEX_POINT ( 'NONE', #163 ) ;
#6 = CARTESIAN_POINT ( 'NONE',  ( 0.0000000000000000000, 1.695000000000004059, 0.0000000000000000000 ) ) ;
#7 = LOCAL_TIME ( 13, 55, 59.00000000000000000, #83 ) ;
#8 = DESIGN_CONTEXT ( 'detailed design', #137, 'design' ) ;
#9 =( NAMED_UNIT ( * ) SI_UNIT ( $, .STERADIAN. ) SOLID_ANGLE_UNIT ( ) );
#10 = APPROVAL_STATUS ( 'not_yet_approved' ) ;
#11 = PERSON_AND_ORGANIZATION ( #241, #75 ) ;
#12 = EDGE_LOOP ( 'NONE', ( #140 ) ) ;
#13 = PERSON_AND_ORGANIZATION ( #241, #75 ) ;
#14 = PRODUCT ( '321645', '321645', '', ( #76 ) ) ;
#15 = AXIS2_PLACEMENT_3D ( 'NONE', #1, #159, #195 ) ;
#16 = DIRECTION ( 'NONE',  ( 4.275831445896958607E-31, 1.000000000000000000, 1.224646799147353207E-16 ) ) ;
#17 = AXIS2_PLACEMENT_3D ( 'NONE', #58, #90, #225 ) ;
#18 = PLANE ( 'NONE',  #147 ) ;
#19 = AXIS2_PLACEMENT_3D ( 'NONE', #186, #203, #21 ) ;
#20 = DIRECTION ( 'NONE',  ( 0.0000000000000000000, 1.000000000000000000, 0.0000000000000000000 ) ) ;
#21 = DIRECTION ( 'NONE',  ( 4.275831445896958607E-31, 1.000000000000000000, 1.224646799147353207E-16 ) ) ;
#22 = PERSON_AND_ORGANIZATION ( #241, #75 ) ;
#23 = DIRECTION ( 'NONE',  ( -3.491481338843133355E-15, 1.224646799147353207E-16, -1.000000000000000000 ) ) ;
#24 = EDGE_CURVE ( 'NONE', #165, #165, #207, .T. ) ;
#25 = UNCERTAINTY_MEASURE_WITH_UNIT (LENGTH_MEASURE( 1.000000000000000082E-05 ), #183, 'distance_accuracy_value', 'NONE');
#26 = COORDINATED_UNIVERSAL_TIME_OFFSET ( 1, 0, .AHEAD. ) ;
#27 = AXIS2_PLACEMENT_3D ( 'NONE', #97, #23, #95 ) ;
#28 = EDGE_LOOP ( 'NONE', ( #122 ) ) ;
#29 = CARTESIAN_POINT ( 'NONE',  ( 4.189777606611760026E-14, -1.469576158976823947E-15, 12.00000000000000000 ) ) ;
#30 = CC_DESIGN_APPROVAL ( #171, ( #79 ) ) ;
#31 = CARTESIAN_POINT ( 'NONE',  ( 2.779219145719134403E-13, -9.748188521212932624E-15, 79.60000000000000853 ) ) ;
#32 = CARTESIAN_POINT ( 'NONE',  ( 4.189777606611760026E-14, -1.469576158976823947E-15, 12.00000000000000000 ) ) ;
#33 = PRODUCT_RELATED_PRODUCT_CATEGORY ( 'detail', '', ( #14 ) ) ;
#34 = DIRECTION ( 'NONE',  ( -4.275831445896958607E-31, -1.000000000000000000, -1.224646799147353207E-16 ) ) ;
#35 = ADVANCED_FACE ( 'NONE', ( #54 ), #198, .T. ) ;
#36 = DIRECTION ( 'NONE',  ( 4.275831445896958607E-31, 1.000000000000000000, 1.224646799147353207E-16 ) ) ;
#37 = AXIS2_PLACEMENT_3D ( 'NONE', #88, #220, #123 ) ;
#38 = VERTEX_POINT ( 'NONE', #199 ) ;
#39 = VERTEX_POINT ( 'NONE', #6 ) ;
#40 = APPROVAL_PERSON_ORGANIZATION ( #166, #104, #146 ) ;
#41 = CC_DESIGN_APPROVAL ( #104, ( #69 ) ) ;
#42 = CC_DESIGN_PERSON_AND_ORGANIZATION_ASSIGNMENT ( #65, #114, ( #79 ) ) ;
#43 = APPROVAL_ROLE ( '' ) ;
#44 = EDGE_LOOP ( 'NONE', ( #84 ) ) ;
#45 = ADVANCED_FACE ( 'NONE', ( #127 ), #92, .F. ) ;
#46 = ORIENTED_EDGE ( 'NONE', *, *, #180, .F. ) ;
#47 = FACE_OUTER_BOUND ( 'NONE', #70, .T. ) ;
#48 = EDGE_LOOP ( 'NONE', ( #46 ) ) ;
#49 = CIRCLE ( 'NONE', #194, 2.095000000000005080 ) ;
#50 = FACE_OUTER_BOUND ( 'NONE', #215, .T. ) ;
#51 = ORIENTED_EDGE ( 'NONE', *, *, #119, .F. ) ;
#52 = DIRECTION ( 'NONE',  ( -3.491481338843133355E-15, 1.224646799147353207E-16, -1.000000000000000000 ) ) ;
#53 = DIRECTION ( 'NONE',  ( 3.491481338843133355E-15, -1.224646799147353207E-16, 1.000000000000000000 ) ) ;
#54 = FACE_OUTER_BOUND ( 'NONE', #28, .T. ) ;
#55 = FACE_OUTER_BOUND ( 'NONE', #212, .T. ) ;
#56 = ADVANCED_FACE ( 'NONE', ( #106, #77 ), #170, .T. ) ;
#57 = CARTESIAN_POINT ( 'NONE',  ( -3.623767150397680954E-31, 1.271046415805927580E-32, -1.037888162277384290E-16 ) ) ;
#58 = CARTESIAN_POINT ( 'NONE',  ( 0.0000000000000000000, 0.0000000000000000000, 0.0000000000000000000 ) ) ;
#59 = APPROVAL_DATE_TIME ( #227, #104 ) ;
#60 = AXIS2_PLACEMENT_3D ( 'NONE', #71, #52, #217 ) ;
#61 =( NAMED_UNIT ( * ) PLANE_ANGLE_UNIT ( ) SI_UNIT ( $, .RADIAN. ) );
#62 = DIRECTION ( 'NONE',  ( -3.491481338843133355E-15, 1.224646799147353207E-16, -1.000000000000000000 ) ) ;
#63 = PERSON_AND_ORGANIZATION_ROLE ( 'creator' ) ;
#64 = CIRCLE ( 'NONE', #27, 2.095000000000005080 ) ;
#65 = PERSON_AND_ORGANIZATION ( #241, #75 ) ;
#66 = APPROVAL_STATUS ( 'not_yet_approved' ) ;
#67 = EDGE_LOOP ( 'NONE', ( #219 ) ) ;
#68 = AXIS2_PLACEMENT_3D ( 'NONE', #31, #109, #242 ) ;
#69 = PRODUCT_DEFINITION ( 'UNKNOWN', '', #101, #8 ) ;
#70 = EDGE_LOOP ( 'NONE', ( #117 ) ) ;
#71 = CARTESIAN_POINT ( 'NONE',  ( 0.0000000000000000000, 0.0000000000000000000, 0.0000000000000000000 ) ) ;
#72 = ORIENTED_EDGE ( 'NONE', *, *, #145, .F. ) ;
#73 = LOCAL_TIME ( 13, 55, 59.00000000000000000, #134 ) ;
#74 = FACE_OUTER_BOUND ( 'NONE', #82, .T. ) ;
#75 = ORGANIZATION ( 'UNSPECIFIED', 'UNSPECIFIED', '' ) ;
#76 = MECHANICAL_CONTEXT ( 'NONE', #193, 'mechanical' ) ;
#77 = FACE_BOUND ( 'NONE', #139, .T. ) ;
#78 = PERSON_AND_ORGANIZATION_ROLE ( 'design_owner' ) ;
#79 = SECURITY_CLASSIFICATION ( '', '', #214 ) ;
#80 = DATE_AND_TIME ( #229, #153 ) ;
#81 = DIRECTION ( 'NONE',  ( 0.0000000000000000000, 1.000000000000000000, 0.0000000000000000000 ) ) ;
#82 = EDGE_LOOP ( 'NONE', ( #190 ) ) ;
#83 = COORDINATED_UNIVERSAL_TIME_OFFSET ( 1, 0, .AHEAD. ) ;
#84 = ORIENTED_EDGE ( 'NONE', *, *, #238, .T. ) ;
#85 = ORIENTED_EDGE ( 'NONE', *, *, #24, .T. ) ;
#86 = CC_DESIGN_PERSON_AND_ORGANIZATION_ASSIGNMENT ( #13, #172, ( #101 ) ) ;
#87 = CARTESIAN_POINT ( 'NONE',  ( 2.793185071074506684E-13, 1.199807826129472128E-32, 80.00000000000000000 ) ) ;
#88 = CARTESIAN_POINT ( 'NONE',  ( 2.793185071074506684E-13, -9.797174393178826052E-15, 80.00000000000000000 ) ) ;
#89 = EDGE_CURVE ( 'NONE', #208, #208, #108, .T. ) ;
#90 = DIRECTION ( 'NONE',  ( 0.0000000000000000000, 0.0000000000000000000, 1.000000000000000000 ) ) ;
#91 = AXIS2_PLACEMENT_3D ( 'NONE', #124, #226, #200 ) ;
#92 = PLANE ( 'NONE',  #201 ) ;
#93 = MANIFOLD_SOLID_BREP ( 'Corps-Déplacer/Copier1[2]', #161 ) ;
#94 =( GEOMETRIC_REPRESENTATION_CONTEXT ( 3 ) GLOBAL_UNCERTAINTY_ASSIGNED_CONTEXT ( ( #25 ) ) GLOBAL_UNIT_ASSIGNED_CONTEXT ( ( #183, #61, #9 ) ) REPRESENTATION_CONTEXT ( 'NONE', 'WORKASPACE' ) );
#95 = DIRECTION ( 'NONE',  ( 4.596491514050671450E-31, 1.000000000000000000, 1.293797341868140682E-16 ) ) ;
#96 = APPLICATION_PROTOCOL_DEFINITION ( 'international standard', 'config_control_design', 1994, #193 ) ;
#97 = CARTESIAN_POINT ( 'NONE',  ( 1.396592535537253145E-15, -4.898587196589411843E-17, 0.3999999999999999112 ) ) ;
#98 = MANIFOLD_SOLID_BREP ( 'Corps-Déplacer/Copier1[1]', #135 ) ;
#99 = ADVANCED_FACE ( 'NONE', ( #74 ), #141, .T. ) ;
#100 = SHAPE_DEFINITION_REPRESENTATION ( #169, #213 ) ;
#101 = PRODUCT_DEFINITION_FORMATION_WITH_SPECIFIED_SOURCE ( 'ANY', '', #14, .NOT_KNOWN. ) ;
#102 = DIRECTION ( 'NONE',  ( -4.275831445896958607E-31, -1.000000000000000000, -1.224646799147353207E-16 ) ) ;
#103 = APPROVAL_PERSON_ORGANIZATION ( #11, #171, #43 ) ;
#104 = APPROVAL ( #144, 'UNSPECIFIED' ) ;
#105 = CARTESIAN_POINT ( 'NONE',  ( 2.793185071074506684E-13, 1.599999999999991207, 80.00000000000000000 ) ) ;
#106 = FACE_OUTER_BOUND ( 'NONE', #67, .T. ) ;
#107 = VERTEX_POINT ( 'NONE', #3 ) ;
#108 = CIRCLE ( 'NONE', #68, 2.000000000000000888 ) ;
#109 = DIRECTION ( 'NONE',  ( -3.491481338843133355E-15, 1.224646799147353207E-16, -1.000000000000000000 ) ) ;
#110 = PERSON_AND_ORGANIZATION ( #241, #75 ) ;
#111 = DATE_AND_TIME ( #204, #179 ) ;
#112 = AXIS2_PLACEMENT_3D ( 'NONE', #136, #202, #125 ) ;
#113 = APPROVAL ( #10, 'UNSPECIFIED' ) ;
#114 = PERSON_AND_ORGANIZATION_ROLE ( 'classification_officer' ) ;
#115 = AXIS2_PLACEMENT_3D ( 'NONE', #234, #158, #160 ) ;
#116 = EDGE_LOOP ( 'NONE', ( #51 ) ) ;
#117 = ORIENTED_EDGE ( 'NONE', *, *, #89, .T. ) ;
#118 = ORIENTED_EDGE ( 'NONE', *, *, #24, .F. ) ;
#119 = EDGE_CURVE ( 'NONE', #181, #181, #187, .T. ) ;
#120 = AXIS2_PLACEMENT_3D ( 'NONE', #32, #192, #157 ) ;
#121 = FACE_BOUND ( 'NONE', #12, .T. ) ;
#122 = ORIENTED_EDGE ( 'NONE', *, *, #132, .T. ) ;
#123 = DIRECTION ( 'NONE',  ( 0.0000000000000000000, 1.000000000000000000, 0.0000000000000000000 ) ) ;
#124 = CARTESIAN_POINT ( 'NONE',  ( -7.247534300795361908E-31, 2.542092831611855159E-32, -2.075776324554768581E-16 ) ) ;
#125 = DIRECTION ( 'NONE',  ( 4.275831445896958607E-31, 1.000000000000000000, 1.224646799147353207E-16 ) ) ;
#126 = FACE_OUTER_BOUND ( 'NONE', #116, .T. ) ;
#127 = FACE_OUTER_BOUND ( 'NONE', #177, .T. ) ;
#128 = CALENDAR_DATE ( 2021, 2, 12 ) ;
#129 = CIRCLE ( 'NONE', #19, 1.695000000000004059 ) ;
#130 = COORDINATED_UNIVERSAL_TIME_OFFSET ( 1, 0, .AHEAD. ) ;
#131 = PERSON_AND_ORGANIZATION ( #241, #75 ) ;
#132 = EDGE_CURVE ( 'NONE', #39, #39, #129, .T. ) ;
#133 = CARTESIAN_POINT ( 'NONE',  ( 4.189777606611760026E-14, 2.095000000000004192, 12.00000000000000000 ) ) ;
#134 = COORDINATED_UNIVERSAL_TIME_OFFSET ( 1, 0, .AHEAD. ) ;
#135 = CLOSED_SHELL ( 'NONE', ( #45, #188, #162, #230, #209 ) ) ;
#136 = CARTESIAN_POINT ( 'NONE',  ( 0.0000000000000000000, 0.0000000000000000000, 0.0000000000000000000 ) ) ;
#137 = APPLICATION_CONTEXT ( 'configuration controlled 3d designs of mechanical parts and assemblies' ) ;
#138 = CIRCLE ( 'NONE', #15, 1.999999999999991784 ) ;
#139 = EDGE_LOOP ( 'NONE', ( #191 ) ) ;
#140 = ORIENTED_EDGE ( 'NONE', *, *, #119, .T. ) ;
#141 = PLANE ( 'NONE',  #2 ) ;
#142 = CC_DESIGN_PERSON_AND_ORGANIZATION_ASSIGNMENT ( #22, #63, ( #101 ) ) ;
#143 = FACE_OUTER_BOUND ( 'NONE', #44, .T. ) ;
#144 = APPROVAL_STATUS ( 'not_yet_approved' ) ;
#145 = EDGE_CURVE ( 'NONE', #38, #38, #64, .T. ) ;
#146 = APPROVAL_ROLE ( '' ) ;
#147 = AXIS2_PLACEMENT_3D ( 'NONE', #87, #197, #16 ) ;
#148 = PERSON_AND_ORGANIZATION ( #241, #75 ) ;
#149 = DATE_TIME_ROLE ( 'creation_date' ) ;
#150 = APPROVAL_ROLE ( '' ) ;
#151 = DATE_AND_TIME ( #235, #211 ) ;
#152 = APPROVAL_DATE_TIME ( #237, #171 ) ;
#153 = LOCAL_TIME ( 13, 55, 59.00000000000000000, #130 ) ;
#154 = CC_DESIGN_DATE_AND_TIME_ASSIGNMENT ( #80, #149, ( #69 ) ) ;
#155 = FACE_OUTER_BOUND ( 'NONE', #156, .T. ) ;
#156 = EDGE_LOOP ( 'NONE', ( #72 ) ) ;
#157 = DIRECTION ( 'NONE',  ( 0.0000000000000000000, 1.000000000000000000, 0.0000000000000000000 ) ) ;
#158 = DIRECTION ( 'NONE',  ( -3.491481338843133355E-15, 1.224646799147353207E-16, -1.000000000000000000 ) ) ;
#159 = DIRECTION ( 'NONE',  ( -3.491481338843133355E-15, 1.224646799147353207E-16, -1.000000000000000000 ) ) ;
#160 = DIRECTION ( 'NONE',  ( 0.0000000000000000000, 1.000000000000000000, 0.0000000000000000000 ) ) ;
#161 = CLOSED_SHELL ( 'NONE', ( #222, #99, #35, #56 ) ) ;
#162 = ADVANCED_FACE ( 'NONE', ( #168, #47 ), #210, .T. ) ;
#163 = CARTESIAN_POINT ( 'NONE',  ( 4.247228125801039551E-14, 1.999999999999990452, 12.16454482671906590 ) ) ;
#164 = CARTESIAN_POINT ( 'NONE',  ( 4.189777606611760026E-14, 1.570998372338298006E-32, 12.00000000000000000 ) ) ;
#165 = VERTEX_POINT ( 'NONE', #133 ) ;
#166 = PERSON_AND_ORGANIZATION ( #241, #75 ) ;
#167 = PERSON_AND_ORGANIZATION_ROLE ( 'creator' ) ;
#168 = FACE_OUTER_BOUND ( 'NONE', #48, .T. ) ;
#169 = PRODUCT_DEFINITION_SHAPE ( 'NONE', 'NONE',  #69 ) ;
#170 = CONICAL_SURFACE ( 'NONE', #91, 1.695000000000004059, 0.7853981633974497223 ) ;
#171 = APPROVAL ( #66, 'UNSPECIFIED' ) ;
#172 = PERSON_AND_ORGANIZATION_ROLE ( 'design_supplier' ) ;
#173 = ORIENTED_EDGE ( 'NONE', *, *, #89, .F. ) ;
#174 = CC_DESIGN_PERSON_AND_ORGANIZATION_ASSIGNMENT ( #110, #78, ( #14 ) ) ;
#175 = AXIS2_PLACEMENT_3D ( 'NONE', #243, #62, #81 ) ;
#176 = CC_DESIGN_SECURITY_CLASSIFICATION ( #79, ( #101 ) ) ;
#177 = EDGE_LOOP ( 'NONE', ( #85 ) ) ;
#178 = DIRECTION ( 'NONE',  ( -3.491481338843133355E-15, 1.224646799147353207E-16, -1.000000000000000000 ) ) ;
#179 = LOCAL_TIME ( 13, 55, 59.00000000000000000, #231 ) ;
#180 = EDGE_CURVE ( 'NONE', #5, #5, #138, .T. ) ;
#181 = VERTEX_POINT ( 'NONE', #105 ) ;
#182 = DIRECTION ( 'NONE',  ( -3.491481338843133355E-15, 1.224646799147353207E-16, -1.000000000000000000 ) ) ;
#183 =( LENGTH_UNIT ( ) NAMED_UNIT ( * ) SI_UNIT ( .MILLI., .METRE. ) );
#184 = APPLICATION_PROTOCOL_DEFINITION ( 'international standard', 'config_control_design', 1994, #137 ) ;
#185 = APPROVAL_DATE_TIME ( #111, #113 ) ;
#186 = CARTESIAN_POINT ( 'NONE',  ( -7.247534300795361908E-31, 2.542092831611855159E-32, -2.075776324554768581E-16 ) ) ;
#187 = CIRCLE ( 'NONE', #175, 1.600000000000000977 ) ;
#188 = ADVANCED_FACE ( 'NONE', ( #224, #55 ), #232, .T. ) ;
#189 = DATE_TIME_ROLE ( 'classification_date' ) ;
#190 = ORIENTED_EDGE ( 'NONE', *, *, #238, .F. ) ;
#191 = ORIENTED_EDGE ( 'NONE', *, *, #132, .F. ) ;
#192 = DIRECTION ( 'NONE',  ( -3.491481338843133355E-15, 1.224646799147353207E-16, -1.000000000000000000 ) ) ;
#193 = APPLICATION_CONTEXT ( 'configuration controlled 3d designs of mechanical parts and assemblies' ) ;
#194 = AXIS2_PLACEMENT_3D ( 'NONE', #29, #178, #20 ) ;
#195 = DIRECTION ( 'NONE',  ( 0.0000000000000000000, 1.000000000000000000, 0.0000000000000000000 ) ) ;
#196 = CC_DESIGN_PERSON_AND_ORGANIZATION_ASSIGNMENT ( #148, #167, ( #69 ) ) ;
#197 = DIRECTION ( 'NONE',  ( -3.491481338843133355E-15, 1.224646799147353207E-16, -1.000000000000000000 ) ) ;
#198 = PLANE ( 'NONE',  #218 ) ;
#199 = CARTESIAN_POINT ( 'NONE',  ( 1.396592535537254131E-15, 2.095000000000005080, 0.4000000000000001887 ) ) ;
#200 = DIRECTION ( 'NONE',  ( -4.275831445896958607E-31, -1.000000000000000000, -1.224646799147353207E-16 ) ) ;
#201 = AXIS2_PLACEMENT_3D ( 'NONE', #164, #4, #34 ) ;
#202 = DIRECTION ( 'NONE',  ( -3.491481338843133355E-15, 1.224646799147353207E-16, -1.000000000000000000 ) ) ;
#203 = DIRECTION ( 'NONE',  ( -3.491481338843133355E-15, 1.224646799147353207E-16, -1.000000000000000000 ) ) ;
#204 = CALENDAR_DATE ( 2021, 2, 12 ) ;
#205 = CC_DESIGN_DATE_AND_TIME_ASSIGNMENT ( #151, #189, ( #79 ) ) ;
#206 = CARTESIAN_POINT ( 'NONE',  ( 2.779219145719134403E-13, 1.999999999999991340, 79.60000000000000853 ) ) ;
#207 = CIRCLE ( 'NONE', #115, 2.095000000000005080 ) ;
#208 = VERTEX_POINT ( 'NONE', #206 ) ;
#209 = ADVANCED_FACE ( 'NONE', ( #126 ), #18, .F. ) ;
#210 = CYLINDRICAL_SURFACE ( 'NONE', #112, 1.999999999999996669 ) ;
#211 = LOCAL_TIME ( 13, 55, 59.00000000000000000, #26 ) ;
#212 = EDGE_LOOP ( 'NONE', ( #118 ) ) ;
#213 = ADVANCED_BREP_SHAPE_REPRESENTATION ( '321645', ( #98, #93, #17 ), #94 ) ;
#214 = SECURITY_CLASSIFICATION_LEVEL ( 'unclassified' ) ;
#215 = EDGE_LOOP ( 'NONE', ( #173 ) ) ;
#216 = ORIENTED_EDGE ( 'NONE', *, *, #180, .T. ) ;
#217 = DIRECTION ( 'NONE',  ( 4.275831445896959482E-31, 1.000000000000000000, 1.224646799147353454E-16 ) ) ;
#218 = AXIS2_PLACEMENT_3D ( 'NONE', #57, #182, #36 ) ;
#219 = ORIENTED_EDGE ( 'NONE', *, *, #145, .T. ) ;
#220 = DIRECTION ( 'NONE',  ( -3.491481338843133355E-15, 1.224646799147353207E-16, -1.000000000000000000 ) ) ;
#221 = CARTESIAN_POINT ( 'NONE',  ( 4.189777606611760026E-14, 1.570998372338298006E-32, 12.00000000000000000 ) ) ;
#222 = ADVANCED_FACE ( 'NONE', ( #143, #155 ), #239, .T. ) ;
#223 = CONICAL_SURFACE ( 'NONE', #37, 1.600000000000000977, 0.7853981633974512766 ) ;
#224 = FACE_BOUND ( 'NONE', #240, .T. ) ;
#225 = DIRECTION ( 'NONE',  ( 1.000000000000000000, 0.0000000000000000000, 0.0000000000000000000 ) ) ;
#226 = DIRECTION ( 'NONE',  ( 3.491481338843133355E-15, -1.224646799147353207E-16, 1.000000000000000000 ) ) ;
#227 = DATE_AND_TIME ( #128, #73 ) ;
#228 = CC_DESIGN_APPROVAL ( #113, ( #101 ) ) ;
#229 = CALENDAR_DATE ( 2021, 2, 12 ) ;
#230 = ADVANCED_FACE ( 'NONE', ( #50, #121 ), #223, .T. ) ;
#231 = COORDINATED_UNIVERSAL_TIME_OFFSET ( 1, 0, .AHEAD. ) ;
#232 = CONICAL_SURFACE ( 'NONE', #120, 2.095000000000005080, 0.5235987755983018133 ) ;
#233 = CALENDAR_DATE ( 2021, 2, 12 ) ;
#234 = CARTESIAN_POINT ( 'NONE',  ( 4.189777606611760026E-14, -1.469576158976823947E-15, 12.00000000000000000 ) ) ;
#235 = CALENDAR_DATE ( 2021, 2, 12 ) ;
#236 = APPROVAL_PERSON_ORGANIZATION ( #131, #113, #150 ) ;
#237 = DATE_AND_TIME ( #233, #7 ) ;
#238 = EDGE_CURVE ( 'NONE', #107, #107, #49, .T. ) ;
#239 = CYLINDRICAL_SURFACE ( 'NONE', #60, 2.095000000000005080 ) ;
#240 = EDGE_LOOP ( 'NONE', ( #216 ) ) ;
#241 = PERSON ( 'UNSPECIFIED', 'UNSPECIFIED', 'UNSPECIFIED', ('UNSPECIFIED'), ('UNSPECIFIED'), ('UNSPECIFIED') ) ;
#242 = DIRECTION ( 'NONE',  ( 0.0000000000000000000, 1.000000000000000000, 0.0000000000000000000 ) ) ;
#243 = CARTESIAN_POINT ( 'NONE',  ( 2.793185071074506684E-13, -9.797174393178826052E-15, 80.00000000000000000 ) ) ;
ENDSEC;
END-ISO-10303-21;
