ISO-10303-21;
HEADER;
FILE_DESCRIPTION (( 'STEP AP203' ),
    '1' );
FILE_NAME ('321644.step',
    '2021-12-02T12:55:59',
    ( '' ),
    ( '' ),
    'SwSTEP 2.0',
    'SolidWorks 2019',
    '' );
FILE_SCHEMA (( 'CONFIG_CONTROL_DESIGN' ));
ENDSEC;

DATA;
#1 = ORIENTED_EDGE ( 'NONE', *, *, #60, .F. ) ;
#2 = CARTESIAN_POINT ( 'NONE',  ( 2.793185071074506684E-13, -9.797174393178826052E-15, 80.00000000000000000 ) ) ;
#3 = APPROVAL_STATUS ( 'not_yet_approved' ) ;
#4 = FACE_OUTER_BOUND ( 'NONE', #95, .T. ) ;
#5 = ORGANIZATION ( 'UNSPECIFIED', 'UNSPECIFIED', '' ) ;
#6 = CARTESIAN_POINT ( 'NONE',  ( 2.793185071074506684E-13, -9.797174393178826052E-15, 80.00000000000000000 ) ) ;
#7 = CYLINDRICAL_SURFACE ( 'NONE', #162, 1.999999999999996669 ) ;
#8 = DIRECTION ( 'NONE',  ( -3.491481338843133355E-15, 1.224646799147353207E-16, -1.000000000000000000 ) ) ;
#9 = MANIFOLD_SOLID_BREP ( 'Corps-Déplacer/Copier1[2]', #23 ) ;
#10 = CARTESIAN_POINT ( 'NONE',  ( 2.793185071074506684E-13, 1.199807826129472128E-32, 80.00000000000000000 ) ) ;
#11 = ADVANCED_FACE ( 'NONE', ( #239, #204 ), #7, .T. ) ;
#12 = APPROVAL_DATE_TIME ( #29, #30 ) ;
#13 =( NAMED_UNIT ( * ) PLANE_ANGLE_UNIT ( ) SI_UNIT ( $, .RADIAN. ) );
#14 = CONICAL_SURFACE ( 'NONE', #139, 2.090000000000005187, 0.5235987755982982605 ) ;
#15 = EDGE_LOOP ( 'NONE', ( #243 ) ) ;
#16 = MANIFOLD_SOLID_BREP ( 'Corps-Déplacer/Copier1[1]', #92 ) ;
#17 = ORIENTED_EDGE ( 'NONE', *, *, #159, .F. ) ;
#18 = AXIS2_PLACEMENT_3D ( 'NONE', #166, #51, #42 ) ;
#19 = CC_DESIGN_PERSON_AND_ORGANIZATION_ASSIGNMENT ( #89, #233, ( #173 ) ) ;
#20 = DIRECTION ( 'NONE',  ( 3.491481338843133355E-15, -1.224646799147353207E-16, 1.000000000000000000 ) ) ;
#21 = DIRECTION ( 'NONE',  ( -4.275831445896958607E-31, -1.000000000000000000, -1.224646799147353207E-16 ) ) ;
#22 = CIRCLE ( 'NONE', #48, 2.090000000000005187 ) ;
#23 = CLOSED_SHELL ( 'NONE', ( #182, #149, #165, #85 ) ) ;
#24 = CARTESIAN_POINT ( 'NONE',  ( 4.189777606611760026E-14, -1.469576158976823947E-15, 12.00000000000000000 ) ) ;
#25 = LOCAL_TIME ( 13, 55, 59.00000000000000000, #121 ) ;
#26 = DIRECTION ( 'NONE',  ( 0.0000000000000000000, 1.000000000000000000, 0.0000000000000000000 ) ) ;
#27 = DESIGN_CONTEXT ( 'detailed design', #232, 'design' ) ;
#28 = PLANE ( 'NONE',  #44 ) ;
#29 = DATE_AND_TIME ( #36, #236 ) ;
#30 = APPROVAL ( #231, 'UNSPECIFIED' ) ;
#31 = CARTESIAN_POINT ( 'NONE',  ( 4.189777606611760026E-14, 2.090000000000003855, 12.00000000000000000 ) ) ;
#32 = COORDINATED_UNIVERSAL_TIME_OFFSET ( 1, 0, .AHEAD. ) ;
#33 = EDGE_LOOP ( 'NONE', ( #140 ) ) ;
#34 = PERSON ( 'UNSPECIFIED', 'UNSPECIFIED', 'UNSPECIFIED', ('UNSPECIFIED'), ('UNSPECIFIED'), ('UNSPECIFIED') ) ;
#35 = LOCAL_TIME ( 13, 55, 59.00000000000000000, #32 ) ;
#36 = CALENDAR_DATE ( 2021, 2, 12 ) ;
#37 = ORIENTED_EDGE ( 'NONE', *, *, #133, .F. ) ;
#38 = PERSON_AND_ORGANIZATION ( #34, #5 ) ;
#39 = CONICAL_SURFACE ( 'NONE', #87, 1.600000000000000977, 0.7853981633974512766 ) ;
#40 = ORIENTED_EDGE ( 'NONE', *, *, #214, .T. ) ;
#41 = EDGE_CURVE ( 'NONE', #115, #115, #118, .T. ) ;
#42 = DIRECTION ( 'NONE',  ( -4.275831445896958607E-31, -1.000000000000000000, -1.224646799147353207E-16 ) ) ;
#43 = PERSON_AND_ORGANIZATION_ROLE ( 'classification_officer' ) ;
#44 = AXIS2_PLACEMENT_3D ( 'NONE', #160, #20, #65 ) ;
#45 = DIRECTION ( 'NONE',  ( -3.491481338843133355E-15, 1.224646799147353207E-16, -1.000000000000000000 ) ) ;
#46 = CALENDAR_DATE ( 2021, 2, 12 ) ;
#47 = DIRECTION ( 'NONE',  ( -3.491481338843133355E-15, 1.224646799147353207E-16, -1.000000000000000000 ) ) ;
#48 = AXIS2_PLACEMENT_3D ( 'NONE', #82, #8, #26 ) ;
#49 = SECURITY_CLASSIFICATION ( '', '', #61 ) ;
#50 = PRODUCT_RELATED_PRODUCT_CATEGORY ( 'detail', '', ( #173 ) ) ;
#51 = DIRECTION ( 'NONE',  ( 3.491481338843133355E-15, -1.224646799147353207E-16, 1.000000000000000000 ) ) ;
#52 = FACE_OUTER_BOUND ( 'NONE', #189, .T. ) ;
#53 = CARTESIAN_POINT ( 'NONE',  ( 0.0000000000000000000, 0.0000000000000000000, 0.0000000000000000000 ) ) ;
#54 = APPROVAL_ROLE ( '' ) ;
#55 = DATE_TIME_ROLE ( 'creation_date' ) ;
#56 = ORIENTED_EDGE ( 'NONE', *, *, #60, .T. ) ;
#57 = PRODUCT_DEFINITION_SHAPE ( 'NONE', 'NONE',  #234 ) ;
#58 = CC_DESIGN_DATE_AND_TIME_ASSIGNMENT ( #99, #83, ( #49 ) ) ;
#59 = EDGE_LOOP ( 'NONE', ( #79 ) ) ;
#60 = EDGE_CURVE ( 'NONE', #218, #218, #132, .T. ) ;
#61 = SECURITY_CLASSIFICATION_LEVEL ( 'unclassified' ) ;
#62 = DIRECTION ( 'NONE',  ( 4.275831445896958607E-31, 1.000000000000000000, 1.224646799147352961E-16 ) ) ;
#63 = PERSON_AND_ORGANIZATION_ROLE ( 'creator' ) ;
#64 = CARTESIAN_POINT ( 'NONE',  ( 1.396592535537252750E-15, -4.898587196589410610E-17, 0.3999999999999998002 ) ) ;
#65 = DIRECTION ( 'NONE',  ( -4.275831445896958607E-31, -1.000000000000000000, -1.224646799147353207E-16 ) ) ;
#66 = CC_DESIGN_APPROVAL ( #67, ( #49 ) ) ;
#67 = APPROVAL ( #3, 'UNSPECIFIED' ) ;
#68 = PLANE ( 'NONE',  #70 ) ;
#69 = FACE_OUTER_BOUND ( 'NONE', #242, .T. ) ;
#70 = AXIS2_PLACEMENT_3D ( 'NONE', #10, #78, #185 ) ;
#71 = PERSON_AND_ORGANIZATION ( #34, #5 ) ;
#72 = EDGE_CURVE ( 'NONE', #156, #156, #22, .T. ) ;
#73 = AXIS2_PLACEMENT_3D ( 'NONE', #6, #143, #86 ) ;
#74 = APPLICATION_PROTOCOL_DEFINITION ( 'international standard', 'config_control_design', 1994, #134 ) ;
#75 = DIRECTION ( 'NONE',  ( 0.0000000000000000000, 0.0000000000000000000, 1.000000000000000000 ) ) ;
#76 = CARTESIAN_POINT ( 'NONE',  ( 2.793185071074506684E-13, 1.599999999999991207, 80.00000000000000000 ) ) ;
#77 = ORIENTED_EDGE ( 'NONE', *, *, #41, .T. ) ;
#78 = DIRECTION ( 'NONE',  ( -3.491481338843133355E-15, 1.224646799147353207E-16, -1.000000000000000000 ) ) ;
#79 = ORIENTED_EDGE ( 'NONE', *, *, #41, .F. ) ;
#80 = AXIS2_PLACEMENT_3D ( 'NONE', #53, #75, #137 ) ;
#81 = EDGE_LOOP ( 'NONE', ( #40 ) ) ;
#82 = CARTESIAN_POINT ( 'NONE',  ( 4.189777606611760026E-14, -1.469576158976823947E-15, 12.00000000000000000 ) ) ;
#83 = DATE_TIME_ROLE ( 'classification_date' ) ;
#84 = DIRECTION ( 'NONE',  ( -3.491481338843133355E-15, 1.224646799147353207E-16, -1.000000000000000000 ) ) ;
#85 = ADVANCED_FACE ( 'NONE', ( #69, #216 ), #169, .T. ) ;
#86 = DIRECTION ( 'NONE',  ( 0.0000000000000000000, 1.000000000000000000, 0.0000000000000000000 ) ) ;
#87 = AXIS2_PLACEMENT_3D ( 'NONE', #2, #225, #210 ) ;
#88 = DIRECTION ( 'NONE',  ( 4.607487905232609853E-31, 1.000000000000000000, 1.296892550819978058E-16 ) ) ;
#89 = PERSON_AND_ORGANIZATION ( #34, #5 ) ;
#90 = CC_DESIGN_SECURITY_CLASSIFICATION ( #49, ( #167 ) ) ;
#91 = CARTESIAN_POINT ( 'NONE',  ( 2.779219145719134403E-13, 1.999999999999991340, 79.60000000000000853 ) ) ;
#92 = CLOSED_SHELL ( 'NONE', ( #168, #175, #11, #205, #240 ) ) ;
#93 = COORDINATED_UNIVERSAL_TIME_OFFSET ( 1, 0, .AHEAD. ) ;
#94 =( NAMED_UNIT ( * ) SI_UNIT ( $, .STERADIAN. ) SOLID_ANGLE_UNIT ( ) );
#95 = EDGE_LOOP ( 'NONE', ( #37 ) ) ;
#96 = ORIENTED_EDGE ( 'NONE', *, *, #102, .T. ) ;
#97 = LOCAL_TIME ( 13, 55, 59.00000000000000000, #93 ) ;
#98 = DIRECTION ( 'NONE',  ( -3.491481338843133355E-15, 1.224646799147353207E-16, -1.000000000000000000 ) ) ;
#99 = DATE_AND_TIME ( #194, #25 ) ;
#100 = FACE_OUTER_BOUND ( 'NONE', #138, .T. ) ;
#101 = CC_DESIGN_PERSON_AND_ORGANIZATION_ASSIGNMENT ( #131, #190, ( #234 ) ) ;
#102 = EDGE_CURVE ( 'NONE', #170, #170, #127, .T. ) ;
#103 = LOCAL_TIME ( 13, 55, 59.00000000000000000, #211 ) ;
#104 = DIRECTION ( 'NONE',  ( 0.0000000000000000000, 1.000000000000000000, 0.0000000000000000000 ) ) ;
#105 = DIRECTION ( 'NONE',  ( 4.275831445896958607E-31, 1.000000000000000000, 1.224646799147353207E-16 ) ) ;
#106 = FACE_OUTER_BOUND ( 'NONE', #238, .T. ) ;
#107 = APPROVAL_DATE_TIME ( #201, #145 ) ;
#108 = APPROVAL_PERSON_ORGANIZATION ( #178, #67, #226 ) ;
#109 = CALENDAR_DATE ( 2021, 2, 12 ) ;
#110 = AXIS2_PLACEMENT_3D ( 'NONE', #230, #161, #21 ) ;
#111 = VERTEX_POINT ( 'NONE', #113 ) ;
#112 = CC_DESIGN_PERSON_AND_ORGANIZATION_ASSIGNMENT ( #209, #43, ( #49 ) ) ;
#113 = CARTESIAN_POINT ( 'NONE',  ( 4.244204414264762046E-14, 1.999999999999990452, 12.15588457268122191 ) ) ;
#114 = EDGE_LOOP ( 'NONE', ( #221 ) ) ;
#115 = VERTEX_POINT ( 'NONE', #187 ) ;
#116 = CIRCLE ( 'NONE', #73, 1.600000000000000977 ) ;
#117 = CIRCLE ( 'NONE', #146, 2.000000000000000888 ) ;
#118 = CIRCLE ( 'NONE', #235, 2.090000000000005187 ) ;
#119 = EDGE_LOOP ( 'NONE', ( #172 ) ) ;
#120 = FACE_OUTER_BOUND ( 'NONE', #136, .T. ) ;
#121 = COORDINATED_UNIVERSAL_TIME_OFFSET ( 1, 0, .AHEAD. ) ;
#122 = CC_DESIGN_PERSON_AND_ORGANIZATION_ASSIGNMENT ( #38, #142, ( #167 ) ) ;
#123 = CARTESIAN_POINT ( 'NONE',  ( 2.779219145719134403E-13, -9.748188521212932624E-15, 79.60000000000000853 ) ) ;
#124 = DATE_AND_TIME ( #46, #103 ) ;
#125 = PLANE ( 'NONE',  #18 ) ;
#126 = APPROVAL_PERSON_ORGANIZATION ( #71, #30, #186 ) ;
#127 = CIRCLE ( 'NONE', #130, 1.690000000000003721 ) ;
#128 = DIRECTION ( 'NONE',  ( -3.491481338843133355E-15, 1.224646799147353207E-16, -1.000000000000000000 ) ) ;
#129 = CARTESIAN_POINT ( 'NONE',  ( 4.244204414264762046E-14, -1.488666513273875138E-15, 12.15588457268122191 ) ) ;
#130 = AXIS2_PLACEMENT_3D ( 'NONE', #144, #98, #105 ) ;
#131 = PERSON_AND_ORGANIZATION ( #34, #5 ) ;
#132 = CIRCLE ( 'NONE', #188, 2.090000000000005187 ) ;
#133 = EDGE_CURVE ( 'NONE', #203, #203, #116, .T. ) ;
#134 = APPLICATION_CONTEXT ( 'configuration controlled 3d designs of mechanical parts and assemblies' ) ;
#135 = APPROVAL_STATUS ( 'not_yet_approved' ) ;
#136 = EDGE_LOOP ( 'NONE', ( #96 ) ) ;
#137 = DIRECTION ( 'NONE',  ( 1.000000000000000000, 0.0000000000000000000, 0.0000000000000000000 ) ) ;
#138 = EDGE_LOOP ( 'NONE', ( #191 ) ) ;
#139 = AXIS2_PLACEMENT_3D ( 'NONE', #24, #47, #104 ) ;
#140 = ORIENTED_EDGE ( 'NONE', *, *, #214, .F. ) ;
#141 = FACE_BOUND ( 'NONE', #114, .T. ) ;
#142 = PERSON_AND_ORGANIZATION_ROLE ( 'design_supplier' ) ;
#143 = DIRECTION ( 'NONE',  ( -3.491481338843133355E-15, 1.224646799147353207E-16, -1.000000000000000000 ) ) ;
#144 = CARTESIAN_POINT ( 'NONE',  ( -7.226155143565876318E-31, 2.534594032698544722E-32, -2.069653090559031459E-16 ) ) ;
#145 = APPROVAL ( #135, 'UNSPECIFIED' ) ;
#146 = AXIS2_PLACEMENT_3D ( 'NONE', #123, #195, #179 ) ;
#147 = CARTESIAN_POINT ( 'NONE',  ( 0.0000000000000000000, 0.0000000000000000000, 0.0000000000000000000 ) ) ;
#148 = AXIS2_PLACEMENT_3D ( 'NONE', #158, #184, #62 ) ;
#149 = ADVANCED_FACE ( 'NONE', ( #52 ), #125, .T. ) ;
#150 = CARTESIAN_POINT ( 'NONE',  ( 4.189777606611760026E-14, -1.469576158976823947E-15, 12.00000000000000000 ) ) ;
#151 =( LENGTH_UNIT ( ) NAMED_UNIT ( * ) SI_UNIT ( .MILLI., .METRE. ) );
#152 = DATE_AND_TIME ( #154, #97 ) ;
#153 = CARTESIAN_POINT ( 'NONE',  ( 4.189777606611760026E-14, 2.090000000000003855, 12.00000000000000000 ) ) ;
#154 = CALENDAR_DATE ( 2021, 2, 12 ) ;
#155 = AXIS2_PLACEMENT_3D ( 'NONE', #200, #192, #199 ) ;
#156 = VERTEX_POINT ( 'NONE', #31 ) ;
#157 = ORIENTED_EDGE ( 'NONE', *, *, #159, .T. ) ;
#158 = CARTESIAN_POINT ( 'NONE',  ( 0.0000000000000000000, 0.0000000000000000000, 0.0000000000000000000 ) ) ;
#159 = EDGE_CURVE ( 'NONE', #111, #111, #197, .T. ) ;
#160 = CARTESIAN_POINT ( 'NONE',  ( 4.189777606611760026E-14, 1.567248972881643061E-32, 12.00000000000000000 ) ) ;
#161 = DIRECTION ( 'NONE',  ( 3.491481338843133355E-15, -1.224646799147353207E-16, 1.000000000000000000 ) ) ;
#162 = AXIS2_PLACEMENT_3D ( 'NONE', #147, #45, #229 ) ;
#163 = CC_DESIGN_APPROVAL ( #145, ( #167 ) ) ;
#164 = FACE_OUTER_BOUND ( 'NONE', #33, .T. ) ;
#165 = ADVANCED_FACE ( 'NONE', ( #120 ), #227, .T. ) ;
#166 = CARTESIAN_POINT ( 'NONE',  ( 4.189777606611760026E-14, 1.567248972881643061E-32, 12.00000000000000000 ) ) ;
#167 = PRODUCT_DEFINITION_FORMATION_WITH_SPECIFIED_SOURCE ( 'ANY', '', #173, .NOT_KNOWN. ) ;
#168 = ADVANCED_FACE ( 'NONE', ( #100 ), #28, .F. ) ;
#169 = CONICAL_SURFACE ( 'NONE', #110, 1.690000000000003721, 0.7853981633974498333 ) ;
#170 = VERTEX_POINT ( 'NONE', #220 ) ;
#171 = MECHANICAL_CONTEXT ( 'NONE', #134, 'mechanical' ) ;
#172 = ORIENTED_EDGE ( 'NONE', *, *, #102, .F. ) ;
#173 = PRODUCT ( '321644', '321644', '', ( #171 ) ) ;
#174 = APPROVAL_DATE_TIME ( #124, #67 ) ;
#175 = ADVANCED_FACE ( 'NONE', ( #213, #177 ), #14, .T. ) ;
#176 = PERSON_AND_ORGANIZATION ( #34, #5 ) ;
#177 = FACE_OUTER_BOUND ( 'NONE', #15, .T. ) ;
#178 = PERSON_AND_ORGANIZATION ( #34, #5 ) ;
#179 = DIRECTION ( 'NONE',  ( 0.0000000000000000000, 1.000000000000000000, 0.0000000000000000000 ) ) ;
#180 =( GEOMETRIC_REPRESENTATION_CONTEXT ( 3 ) GLOBAL_UNCERTAINTY_ASSIGNED_CONTEXT ( ( #212 ) ) GLOBAL_UNIT_ASSIGNED_CONTEXT ( ( #151, #13, #94 ) ) REPRESENTATION_CONTEXT ( 'NONE', 'WORKASPACE' ) );
#181 = FACE_OUTER_BOUND ( 'NONE', #59, .T. ) ;
#182 = ADVANCED_FACE ( 'NONE', ( #106, #181 ), #223, .T. ) ;
#183 = DIRECTION ( 'NONE',  ( 0.0000000000000000000, 1.000000000000000000, 0.0000000000000000000 ) ) ;
#184 = DIRECTION ( 'NONE',  ( -3.491481338843133355E-15, 1.224646799147353207E-16, -1.000000000000000000 ) ) ;
#185 = DIRECTION ( 'NONE',  ( 4.275831445896958607E-31, 1.000000000000000000, 1.224646799147353207E-16 ) ) ;
#186 = APPROVAL_ROLE ( '' ) ;
#187 = CARTESIAN_POINT ( 'NONE',  ( 1.396592535537253737E-15, 2.090000000000005187, 0.4000000000000000777 ) ) ;
#188 = AXIS2_PLACEMENT_3D ( 'NONE', #150, #208, #183 ) ;
#189 = EDGE_LOOP ( 'NONE', ( #1 ) ) ;
#190 = PERSON_AND_ORGANIZATION_ROLE ( 'creator' ) ;
#191 = ORIENTED_EDGE ( 'NONE', *, *, #72, .T. ) ;
#192 = DIRECTION ( 'NONE',  ( -3.491481338843133355E-15, 1.224646799147353207E-16, -1.000000000000000000 ) ) ;
#193 = AXIS2_PLACEMENT_3D ( 'NONE', #129, #128, #196 ) ;
#194 = CALENDAR_DATE ( 2021, 2, 12 ) ;
#195 = DIRECTION ( 'NONE',  ( -3.491481338843133355E-15, 1.224646799147353207E-16, -1.000000000000000000 ) ) ;
#196 = DIRECTION ( 'NONE',  ( 0.0000000000000000000, 1.000000000000000000, 0.0000000000000000000 ) ) ;
#197 = CIRCLE ( 'NONE', #193, 1.999999999999991784 ) ;
#198 = CC_DESIGN_DATE_AND_TIME_ASSIGNMENT ( #152, #55, ( #234 ) ) ;
#199 = DIRECTION ( 'NONE',  ( 4.275831445896958607E-31, 1.000000000000000000, 1.224646799147353207E-16 ) ) ;
#200 = CARTESIAN_POINT ( 'NONE',  ( -3.613077571782938159E-31, 1.267297016349272361E-32, -1.034826545279515729E-16 ) ) ;
#201 = DATE_AND_TIME ( #109, #35 ) ;
#202 = APPLICATION_PROTOCOL_DEFINITION ( 'international standard', 'config_control_design', 1994, #232 ) ;
#203 = VERTEX_POINT ( 'NONE', #76 ) ;
#204 = FACE_OUTER_BOUND ( 'NONE', #81, .T. ) ;
#205 = ADVANCED_FACE ( 'NONE', ( #164, #141 ), #39, .T. ) ;
#206 = EDGE_LOOP ( 'NONE', ( #17 ) ) ;
#207 = CC_DESIGN_APPROVAL ( #30, ( #234 ) ) ;
#208 = DIRECTION ( 'NONE',  ( -3.491481338843133355E-15, 1.224646799147353207E-16, -1.000000000000000000 ) ) ;
#209 = PERSON_AND_ORGANIZATION ( #34, #5 ) ;
#210 = DIRECTION ( 'NONE',  ( 0.0000000000000000000, 1.000000000000000000, 0.0000000000000000000 ) ) ;
#211 = COORDINATED_UNIVERSAL_TIME_OFFSET ( 1, 0, .AHEAD. ) ;
#212 = UNCERTAINTY_MEASURE_WITH_UNIT (LENGTH_MEASURE( 1.000000000000000082E-05 ), #151, 'distance_accuracy_value', 'NONE');
#213 = FACE_BOUND ( 'NONE', #222, .T. ) ;
#214 = EDGE_CURVE ( 'NONE', #217, #217, #117, .T. ) ;
#215 = ADVANCED_BREP_SHAPE_REPRESENTATION ( '321644', ( #16, #9, #80 ), #180 ) ;
#216 = FACE_BOUND ( 'NONE', #119, .T. ) ;
#217 = VERTEX_POINT ( 'NONE', #91 ) ;
#218 = VERTEX_POINT ( 'NONE', #153 ) ;
#219 = PERSON_AND_ORGANIZATION ( #34, #5 ) ;
#220 = CARTESIAN_POINT ( 'NONE',  ( 0.0000000000000000000, 1.690000000000003721, 0.0000000000000000000 ) ) ;
#221 = ORIENTED_EDGE ( 'NONE', *, *, #133, .T. ) ;
#222 = EDGE_LOOP ( 'NONE', ( #157 ) ) ;
#223 = CYLINDRICAL_SURFACE ( 'NONE', #148, 2.090000000000005187 ) ;
#224 = APPROVAL_PERSON_ORGANIZATION ( #219, #145, #54 ) ;
#225 = DIRECTION ( 'NONE',  ( -3.491481338843133355E-15, 1.224646799147353207E-16, -1.000000000000000000 ) ) ;
#226 = APPROVAL_ROLE ( '' ) ;
#227 = PLANE ( 'NONE',  #155 ) ;
#228 = CC_DESIGN_PERSON_AND_ORGANIZATION_ASSIGNMENT ( #176, #63, ( #167 ) ) ;
#229 = DIRECTION ( 'NONE',  ( 4.275831445896958607E-31, 1.000000000000000000, 1.224646799147353207E-16 ) ) ;
#230 = CARTESIAN_POINT ( 'NONE',  ( -7.226155143565876318E-31, 2.534594032698544722E-32, -2.069653090559031459E-16 ) ) ;
#231 = APPROVAL_STATUS ( 'not_yet_approved' ) ;
#232 = APPLICATION_CONTEXT ( 'configuration controlled 3d designs of mechanical parts and assemblies' ) ;
#233 = PERSON_AND_ORGANIZATION_ROLE ( 'design_owner' ) ;
#234 = PRODUCT_DEFINITION ( 'UNKNOWN', '', #167, #27 ) ;
#235 = AXIS2_PLACEMENT_3D ( 'NONE', #64, #84, #88 ) ;
#236 = LOCAL_TIME ( 13, 55, 59.00000000000000000, #237 ) ;
#237 = COORDINATED_UNIVERSAL_TIME_OFFSET ( 1, 0, .AHEAD. ) ;
#238 = EDGE_LOOP ( 'NONE', ( #56 ) ) ;
#239 = FACE_OUTER_BOUND ( 'NONE', #206, .T. ) ;
#240 = ADVANCED_FACE ( 'NONE', ( #4 ), #68, .F. ) ;
#241 = SHAPE_DEFINITION_REPRESENTATION ( #57, #215 ) ;
#242 = EDGE_LOOP ( 'NONE', ( #77 ) ) ;
#243 = ORIENTED_EDGE ( 'NONE', *, *, #72, .F. ) ;
ENDSEC;
END-ISO-10303-21;
