ISO-10303-21;
HEADER;
FILE_DESCRIPTION (( 'STEP AP203' ),
    '1' );
FILE_NAME ('321643.step',
    '2021-12-02T12:55:58',
    ( '' ),
    ( '' ),
    'SwSTEP 2.0',
    'SolidWorks 2019',
    '' );
FILE_SCHEMA (( 'CONFIG_CONTROL_DESIGN' ));
ENDSEC;

DATA;
#1 = CARTESIAN_POINT ( 'NONE',  ( 0.0000000000000000000, 0.0000000000000000000, 0.0000000000000000000 ) ) ;
#2 = CIRCLE ( 'NONE', #9, 2.000000000000000888 ) ;
#3 = PERSON ( 'UNSPECIFIED', 'UNSPECIFIED', 'UNSPECIFIED', ('UNSPECIFIED'), ('UNSPECIFIED'), ('UNSPECIFIED') ) ;
#4 = ORIENTED_EDGE ( 'NONE', *, *, #210, .T. ) ;
#5 = AXIS2_PLACEMENT_3D ( 'NONE', #103, #108, #176 ) ;
#6 = PRODUCT_DEFINITION ( 'UNKNOWN', '', #153, #231 ) ;
#7 = DIRECTION ( 'NONE',  ( -3.491481338843133355E-15, 1.224646799147353207E-16, -1.000000000000000000 ) ) ;
#8 = FACE_BOUND ( 'NONE', #27, .T. ) ;
#9 = AXIS2_PLACEMENT_3D ( 'NONE', #84, #141, #233 ) ;
#10 = CONICAL_SURFACE ( 'NONE', #146, 2.084999999999999964, 0.5235987755983005920 ) ;
#11 = MANIFOLD_SOLID_BREP ( 'Corps-Déplacer/Copier1[2]', #42 ) ;
#12 = DIRECTION ( 'NONE',  ( 0.0000000000000000000, 1.000000000000000000, 0.0000000000000000000 ) ) ;
#13 = ADVANCED_FACE ( 'NONE', ( #44 ), #188, .F. ) ;
#14 = FACE_OUTER_BOUND ( 'NONE', #209, .T. ) ;
#15 = UNCERTAINTY_MEASURE_WITH_UNIT (LENGTH_MEASURE( 1.000000000000000082E-05 ), #167, 'distance_accuracy_value', 'NONE');
#16 = CARTESIAN_POINT ( 'NONE',  ( 1.396592535537253145E-15, -4.898587196589411843E-17, 0.3999999999999999112 ) ) ;
#17 = DIRECTION ( 'NONE',  ( 0.0000000000000000000, 0.0000000000000000000, 1.000000000000000000 ) ) ;
#18 = CARTESIAN_POINT ( 'NONE',  ( 1.396592535537254131E-15, 2.084999999999999964, 0.4000000000000001887 ) ) ;
#19 = DATE_TIME_ROLE ( 'creation_date' ) ;
#20 = AXIS2_PLACEMENT_3D ( 'NONE', #31, #70, #106 ) ;
#21 = CC_DESIGN_PERSON_AND_ORGANIZATION_ASSIGNMENT ( #116, #25, ( #153 ) ) ;
#22 = PERSON_AND_ORGANIZATION ( #3, #179 ) ;
#23 = CC_DESIGN_APPROVAL ( #217, ( #55 ) ) ;
#24 = APPROVAL_STATUS ( 'not_yet_approved' ) ;
#25 = PERSON_AND_ORGANIZATION_ROLE ( 'creator' ) ;
#26 = APPROVAL_PERSON_ORGANIZATION ( #113, #115, #203 ) ;
#27 = EDGE_LOOP ( 'NONE', ( #29 ) ) ;
#28 = CIRCLE ( 'NONE', #88, 1.684999999999998721 ) ;
#29 = ORIENTED_EDGE ( 'NONE', *, *, #198, .T. ) ;
#30 = CYLINDRICAL_SURFACE ( 'NONE', #45, 1.999999999999996669 ) ;
#31 = CARTESIAN_POINT ( 'NONE',  ( 4.189777606611760026E-14, 1.563499573424984832E-32, 12.00000000000000000 ) ) ;
#32 = AXIS2_PLACEMENT_3D ( 'NONE', #16, #7, #216 ) ;
#33 = FACE_BOUND ( 'NONE', #187, .T. ) ;
#34 = EDGE_CURVE ( 'NONE', #224, #224, #239, .T. ) ;
#35 = CARTESIAN_POINT ( 'NONE',  ( 4.189777606611760026E-14, 1.563499573424984832E-32, 12.00000000000000000 ) ) ;
#36 = DIRECTION ( 'NONE',  ( 4.275831445896958607E-31, 1.000000000000000000, 1.224646799147353207E-16 ) ) ;
#37 = CONICAL_SURFACE ( 'NONE', #76, 1.684999999999998721, 0.7853981633974497223 ) ;
#38 =( NAMED_UNIT ( * ) SI_UNIT ( $, .STERADIAN. ) SOLID_ANGLE_UNIT ( ) );
#39 = VERTEX_POINT ( 'NONE', #177 ) ;
#40 = DATE_AND_TIME ( #222, #47 ) ;
#41 = ADVANCED_FACE ( 'NONE', ( #52, #8 ), #63, .T. ) ;
#42 = CLOSED_SHELL ( 'NONE', ( #57, #148, #60, #234 ) ) ;
#43 = ORIENTED_EDGE ( 'NONE', *, *, #198, .F. ) ;
#44 = FACE_OUTER_BOUND ( 'NONE', #99, .T. ) ;
#45 = AXIS2_PLACEMENT_3D ( 'NONE', #194, #102, #36 ) ;
#46 = APPLICATION_CONTEXT ( 'configuration controlled 3d designs of mechanical parts and assemblies' ) ;
#47 = LOCAL_TIME ( 13, 55, 58.00000000000000000, #221 ) ;
#48 = FACE_OUTER_BOUND ( 'NONE', #136, .T. ) ;
#49 = CYLINDRICAL_SURFACE ( 'NONE', #85, 2.084999999999999964 ) ;
#50 = COORDINATED_UNIVERSAL_TIME_OFFSET ( 1, 0, .AHEAD. ) ;
#51 = DIRECTION ( 'NONE',  ( 0.0000000000000000000, 1.000000000000000000, 0.0000000000000000000 ) ) ;
#52 = FACE_OUTER_BOUND ( 'NONE', #227, .T. ) ;
#53 = CIRCLE ( 'NONE', #5, 2.084999999999999964 ) ;
#54 = FACE_OUTER_BOUND ( 'NONE', #121, .T. ) ;
#55 = SECURITY_CLASSIFICATION ( '', '', #82 ) ;
#56 = CARTESIAN_POINT ( 'NONE',  ( 4.189777606611760026E-14, 2.084999999999998632, 12.00000000000000000 ) ) ;
#57 = ADVANCED_FACE ( 'NONE', ( #54, #192 ), #49, .T. ) ;
#58 = CARTESIAN_POINT ( 'NONE',  ( 4.241180702728482018E-14, 1.999999999999990452, 12.14722431864336905 ) ) ;
#59 = COORDINATED_UNIVERSAL_TIME_OFFSET ( 1, 0, .AHEAD. ) ;
#60 = ADVANCED_FACE ( 'NONE', ( #14 ), #161, .T. ) ;
#61 = CARTESIAN_POINT ( 'NONE',  ( 4.189777606611760026E-14, 2.084999999999998632, 12.00000000000000000 ) ) ;
#62 = PERSON_AND_ORGANIZATION ( #3, #179 ) ;
#63 = CONICAL_SURFACE ( 'NONE', #178, 1.600000000000000977, 0.7853981633974512766 ) ;
#64 = ORIENTED_EDGE ( 'NONE', *, *, #34, .F. ) ;
#65 = CC_DESIGN_PERSON_AND_ORGANIZATION_ASSIGNMENT ( #22, #180, ( #6 ) ) ;
#66 = CARTESIAN_POINT ( 'NONE',  ( -7.204775986336370584E-31, 2.527095233785228263E-32, -2.063529856563288666E-16 ) ) ;
#67 = CARTESIAN_POINT ( 'NONE',  ( 4.241180702728482018E-14, -1.487605938035148910E-15, 12.14722431864336905 ) ) ;
#68 = LOCAL_TIME ( 13, 55, 58.00000000000000000, #208 ) ;
#69 = CARTESIAN_POINT ( 'NONE',  ( 2.793185071074506684E-13, -9.797174393178826052E-15, 80.00000000000000000 ) ) ;
#70 = DIRECTION ( 'NONE',  ( 3.491481338843133355E-15, -1.224646799147353207E-16, 1.000000000000000000 ) ) ;
#71 = AXIS2_PLACEMENT_3D ( 'NONE', #237, #142, #218 ) ;
#72 = DIRECTION ( 'NONE',  ( -3.491481338843133355E-15, 1.224646799147353207E-16, -1.000000000000000000 ) ) ;
#73 = APPROVAL ( #243, 'UNSPECIFIED' ) ;
#74 = MECHANICAL_CONTEXT ( 'NONE', #46, 'mechanical' ) ;
#75 = COORDINATED_UNIVERSAL_TIME_OFFSET ( 1, 0, .AHEAD. ) ;
#76 = AXIS2_PLACEMENT_3D ( 'NONE', #220, #90, #131 ) ;
#77 = CALENDAR_DATE ( 2021, 2, 12 ) ;
#78 = APPLICATION_PROTOCOL_DEFINITION ( 'international standard', 'config_control_design', 1994, #101 ) ;
#79 = APPROVAL_ROLE ( '' ) ;
#80 = ORIENTED_EDGE ( 'NONE', *, *, #155, .T. ) ;
#81 = DIRECTION ( 'NONE',  ( -3.491481338843133355E-15, 1.224646799147353207E-16, -1.000000000000000000 ) ) ;
#82 = SECURITY_CLASSIFICATION_LEVEL ( 'unclassified' ) ;
#83 = CIRCLE ( 'NONE', #118, 1.600000000000000977 ) ;
#84 = CARTESIAN_POINT ( 'NONE',  ( 2.779219145719134403E-13, -9.748188521212932624E-15, 79.60000000000000853 ) ) ;
#85 = AXIS2_PLACEMENT_3D ( 'NONE', #229, #235, #122 ) ;
#86 = DIRECTION ( 'NONE',  ( -3.491481338843133355E-15, 1.224646799147353207E-16, -1.000000000000000000 ) ) ;
#87 = CC_DESIGN_DATE_AND_TIME_ASSIGNMENT ( #182, #19, ( #6 ) ) ;
#88 = AXIS2_PLACEMENT_3D ( 'NONE', #66, #81, #172 ) ;
#89 = DIRECTION ( 'NONE',  ( -3.491481338843133355E-15, 1.224646799147353207E-16, -1.000000000000000000 ) ) ;
#90 = DIRECTION ( 'NONE',  ( 3.491481338843133355E-15, -1.224646799147353207E-16, 1.000000000000000000 ) ) ;
#91 =( NAMED_UNIT ( * ) PLANE_ANGLE_UNIT ( ) SI_UNIT ( $, .RADIAN. ) );
#92 = MANIFOLD_SOLID_BREP ( 'Corps-Déplacer/Copier1[1]', #183 ) ;
#93 = APPLICATION_PROTOCOL_DEFINITION ( 'international standard', 'config_control_design', 1994, #46 ) ;
#94 = VERTEX_POINT ( 'NONE', #202 ) ;
#95 = APPROVAL_DATE_TIME ( #149, #73 ) ;
#96 = CC_DESIGN_PERSON_AND_ORGANIZATION_ASSIGNMENT ( #204, #185, ( #153 ) ) ;
#97 = CALENDAR_DATE ( 2021, 2, 12 ) ;
#98 = DATE_AND_TIME ( #97, #175 ) ;
#99 = EDGE_LOOP ( 'NONE', ( #43 ) ) ;
#100 = ORIENTED_EDGE ( 'NONE', *, *, #34, .T. ) ;
#101 = APPLICATION_CONTEXT ( 'configuration controlled 3d designs of mechanical parts and assemblies' ) ;
#102 = DIRECTION ( 'NONE',  ( -3.491481338843133355E-15, 1.224646799147353207E-16, -1.000000000000000000 ) ) ;
#103 = CARTESIAN_POINT ( 'NONE',  ( 4.189777606611760026E-14, -1.469576158976823947E-15, 12.00000000000000000 ) ) ;
#104 =( GEOMETRIC_REPRESENTATION_CONTEXT ( 3 ) GLOBAL_UNCERTAINTY_ASSIGNED_CONTEXT ( ( #15 ) ) GLOBAL_UNIT_ASSIGNED_CONTEXT ( ( #167, #91, #38 ) ) REPRESENTATION_CONTEXT ( 'NONE', 'WORKASPACE' ) );
#105 = DIRECTION ( 'NONE',  ( 0.0000000000000000000, 1.000000000000000000, 0.0000000000000000000 ) ) ;
#106 = DIRECTION ( 'NONE',  ( -4.275831445896958607E-31, -1.000000000000000000, -1.224646799147353207E-16 ) ) ;
#107 = ADVANCED_FACE ( 'NONE', ( #159, #195 ), #10, .T. ) ;
#108 = DIRECTION ( 'NONE',  ( -3.491481338843133355E-15, 1.224646799147353207E-16, -1.000000000000000000 ) ) ;
#109 = AXIS2_PLACEMENT_3D ( 'NONE', #1, #17, #110 ) ;
#110 = DIRECTION ( 'NONE',  ( 1.000000000000000000, 0.0000000000000000000, 0.0000000000000000000 ) ) ;
#111 = CC_DESIGN_APPROVAL ( #73, ( #153 ) ) ;
#112 = VERTEX_POINT ( 'NONE', #58 ) ;
#113 = PERSON_AND_ORGANIZATION ( #3, #179 ) ;
#114 = APPROVAL_PERSON_ORGANIZATION ( #164, #73, #241 ) ;
#115 = APPROVAL ( #132, 'UNSPECIFIED' ) ;
#116 = PERSON_AND_ORGANIZATION ( #3, #179 ) ;
#117 = ORIENTED_EDGE ( 'NONE', *, *, #154, .F. ) ;
#118 = AXIS2_PLACEMENT_3D ( 'NONE', #69, #196, #105 ) ;
#119 = ORIENTED_EDGE ( 'NONE', *, *, #163, .F. ) ;
#120 = ORIENTED_EDGE ( 'NONE', *, *, #155, .F. ) ;
#121 = EDGE_LOOP ( 'NONE', ( #228 ) ) ;
#122 = DIRECTION ( 'NONE',  ( 4.275831445896958607E-31, 1.000000000000000000, 1.224646799147353454E-16 ) ) ;
#123 = DIRECTION ( 'NONE',  ( 0.0000000000000000000, 1.000000000000000000, 0.0000000000000000000 ) ) ;
#124 = PERSON_AND_ORGANIZATION ( #3, #179 ) ;
#125 = FACE_OUTER_BOUND ( 'NONE', #191, .T. ) ;
#126 = FACE_OUTER_BOUND ( 'NONE', #151, .T. ) ;
#127 = CC_DESIGN_APPROVAL ( #115, ( #6 ) ) ;
#128 = CARTESIAN_POINT ( 'NONE',  ( 4.189777606611760026E-14, -1.469576158976823947E-15, 12.00000000000000000 ) ) ;
#129 = CARTESIAN_POINT ( 'NONE',  ( 2.779219145719134403E-13, 1.999999999999991340, 79.60000000000000853 ) ) ;
#130 = PERSON_AND_ORGANIZATION ( #3, #179 ) ;
#131 = DIRECTION ( 'NONE',  ( -4.275831445896959482E-31, -1.000000000000000000, -1.224646799147353207E-16 ) ) ;
#132 = APPROVAL_STATUS ( 'not_yet_approved' ) ;
#133 = AXIS2_PLACEMENT_3D ( 'NONE', #128, #89, #139 ) ;
#134 = APPROVAL_DATE_TIME ( #98, #217 ) ;
#135 = EDGE_LOOP ( 'NONE', ( #64 ) ) ;
#136 = EDGE_LOOP ( 'NONE', ( #207 ) ) ;
#137 = EDGE_LOOP ( 'NONE', ( #117 ) ) ;
#138 = AXIS2_PLACEMENT_3D ( 'NONE', #67, #140, #51 ) ;
#139 = DIRECTION ( 'NONE',  ( 0.0000000000000000000, 1.000000000000000000, 0.0000000000000000000 ) ) ;
#140 = DIRECTION ( 'NONE',  ( -3.491481338843133355E-15, 1.224646799147353207E-16, -1.000000000000000000 ) ) ;
#141 = DIRECTION ( 'NONE',  ( -3.491481338843133355E-15, 1.224646799147353207E-16, -1.000000000000000000 ) ) ;
#142 = DIRECTION ( 'NONE',  ( -3.491481338843133355E-15, 1.224646799147353207E-16, -1.000000000000000000 ) ) ;
#143 = FACE_OUTER_BOUND ( 'NONE', #137, .T. ) ;
#144 = PERSON_AND_ORGANIZATION_ROLE ( 'design_owner' ) ;
#145 = AXIS2_PLACEMENT_3D ( 'NONE', #35, #232, #173 ) ;
#146 = AXIS2_PLACEMENT_3D ( 'NONE', #174, #160, #123 ) ;
#147 = ADVANCED_FACE ( 'NONE', ( #48, #126 ), #30, .T. ) ;
#148 = ADVANCED_FACE ( 'NONE', ( #143 ), #171, .T. ) ;
#149 = DATE_AND_TIME ( #77, #238 ) ;
#150 = PERSON_AND_ORGANIZATION_ROLE ( 'classification_officer' ) ;
#151 = EDGE_LOOP ( 'NONE', ( #170 ) ) ;
#152 = ORIENTED_EDGE ( 'NONE', *, *, #163, .T. ) ;
#153 = PRODUCT_DEFINITION_FORMATION_WITH_SPECIFIED_SOURCE ( 'ANY', '', #219, .NOT_KNOWN. ) ;
#154 = EDGE_CURVE ( 'NONE', #201, #201, #53, .T. ) ;
#155 = EDGE_CURVE ( 'NONE', #165, #165, #236, .T. ) ;
#156 = EDGE_LOOP ( 'NONE', ( #120 ) ) ;
#157 = PLANE ( 'NONE',  #145 ) ;
#158 = FACE_OUTER_BOUND ( 'NONE', #212, .T. ) ;
#159 = FACE_BOUND ( 'NONE', #186, .T. ) ;
#160 = DIRECTION ( 'NONE',  ( -3.491481338843133355E-15, 1.224646799147353207E-16, -1.000000000000000000 ) ) ;
#161 = PLANE ( 'NONE',  #162 ) ;
#162 = AXIS2_PLACEMENT_3D ( 'NONE', #197, #72, #214 ) ;
#163 = EDGE_CURVE ( 'NONE', #94, #94, #28, .T. ) ;
#164 = PERSON_AND_ORGANIZATION ( #3, #179 ) ;
#165 = VERTEX_POINT ( 'NONE', #18 ) ;
#166 = CC_DESIGN_PERSON_AND_ORGANIZATION_ASSIGNMENT ( #124, #150, ( #55 ) ) ;
#167 =( LENGTH_UNIT ( ) NAMED_UNIT ( * ) SI_UNIT ( .MILLI., .METRE. ) );
#168 = CC_DESIGN_SECURITY_CLASSIFICATION ( #55, ( #153 ) ) ;
#169 = SHAPE_DEFINITION_REPRESENTATION ( #240, #211 ) ;
#170 = ORIENTED_EDGE ( 'NONE', *, *, #190, .T. ) ;
#171 = PLANE ( 'NONE',  #20 ) ;
#172 = DIRECTION ( 'NONE',  ( 4.275831445896959482E-31, 1.000000000000000000, 1.224646799147353207E-16 ) ) ;
#173 = DIRECTION ( 'NONE',  ( -4.275831445896958607E-31, -1.000000000000000000, -1.224646799147353207E-16 ) ) ;
#174 = CARTESIAN_POINT ( 'NONE',  ( 4.189777606611760026E-14, -1.469576158976823947E-15, 12.00000000000000000 ) ) ;
#175 = LOCAL_TIME ( 13, 55, 58.00000000000000000, #50 ) ;
#176 = DIRECTION ( 'NONE',  ( 0.0000000000000000000, 1.000000000000000000, 0.0000000000000000000 ) ) ;
#177 = CARTESIAN_POINT ( 'NONE',  ( 2.793185071074506684E-13, 1.599999999999991207, 80.00000000000000000 ) ) ;
#178 = AXIS2_PLACEMENT_3D ( 'NONE', #215, #86, #12 ) ;
#179 = ORGANIZATION ( 'UNSPECIFIED', 'UNSPECIFIED', '' ) ;
#180 = PERSON_AND_ORGANIZATION_ROLE ( 'creator' ) ;
#181 = CC_DESIGN_DATE_AND_TIME_ASSIGNMENT ( #193, #213, ( #55 ) ) ;
#182 = DATE_AND_TIME ( #200, #223 ) ;
#183 = CLOSED_SHELL ( 'NONE', ( #199, #107, #147, #41, #13 ) ) ;
#184 = APPROVAL_DATE_TIME ( #40, #115 ) ;
#185 = PERSON_AND_ORGANIZATION_ROLE ( 'design_supplier' ) ;
#186 = EDGE_LOOP ( 'NONE', ( #4 ) ) ;
#187 = EDGE_LOOP ( 'NONE', ( #119 ) ) ;
#188 = PLANE ( 'NONE',  #71 ) ;
#189 = APPROVAL_PERSON_ORGANIZATION ( #62, #217, #79 ) ;
#190 = EDGE_CURVE ( 'NONE', #242, #242, #2, .T. ) ;
#191 = EDGE_LOOP ( 'NONE', ( #80 ) ) ;
#192 = FACE_OUTER_BOUND ( 'NONE', #156, .T. ) ;
#193 = DATE_AND_TIME ( #206, #68 ) ;
#194 = CARTESIAN_POINT ( 'NONE',  ( 0.0000000000000000000, 0.0000000000000000000, 0.0000000000000000000 ) ) ;
#195 = FACE_OUTER_BOUND ( 'NONE', #135, .T. ) ;
#196 = DIRECTION ( 'NONE',  ( -3.491481338843133355E-15, 1.224646799147353207E-16, -1.000000000000000000 ) ) ;
#197 = CARTESIAN_POINT ( 'NONE',  ( -3.602387993168185292E-31, 1.263547616892614131E-32, -1.031764928281644333E-16 ) ) ;
#198 = EDGE_CURVE ( 'NONE', #39, #39, #83, .T. ) ;
#199 = ADVANCED_FACE ( 'NONE', ( #158 ), #157, .F. ) ;
#200 = CALENDAR_DATE ( 2021, 2, 12 ) ;
#201 = VERTEX_POINT ( 'NONE', #61 ) ;
#202 = CARTESIAN_POINT ( 'NONE',  ( 0.0000000000000000000, 1.684999999999998721, 0.0000000000000000000 ) ) ;
#203 = APPROVAL_ROLE ( '' ) ;
#204 = PERSON_AND_ORGANIZATION ( #3, #179 ) ;
#205 = PRODUCT_RELATED_PRODUCT_CATEGORY ( 'detail', '', ( #219 ) ) ;
#206 = CALENDAR_DATE ( 2021, 2, 12 ) ;
#207 = ORIENTED_EDGE ( 'NONE', *, *, #210, .F. ) ;
#208 = COORDINATED_UNIVERSAL_TIME_OFFSET ( 1, 0, .AHEAD. ) ;
#209 = EDGE_LOOP ( 'NONE', ( #152 ) ) ;
#210 = EDGE_CURVE ( 'NONE', #112, #112, #230, .T. ) ;
#211 = ADVANCED_BREP_SHAPE_REPRESENTATION ( '321643', ( #92, #11, #109 ), #104 ) ;
#212 = EDGE_LOOP ( 'NONE', ( #100 ) ) ;
#213 = DATE_TIME_ROLE ( 'classification_date' ) ;
#214 = DIRECTION ( 'NONE',  ( 4.275831445896958607E-31, 1.000000000000000000, 1.224646799147353207E-16 ) ) ;
#215 = CARTESIAN_POINT ( 'NONE',  ( 2.793185071074506684E-13, -9.797174393178826052E-15, 80.00000000000000000 ) ) ;
#216 = DIRECTION ( 'NONE',  ( 4.618537036899846248E-31, 1.000000000000000000, 1.300002604898686394E-16 ) ) ;
#217 = APPROVAL ( #24, 'UNSPECIFIED' ) ;
#218 = DIRECTION ( 'NONE',  ( 4.275831445896958607E-31, 1.000000000000000000, 1.224646799147353207E-16 ) ) ;
#219 = PRODUCT ( '321643', '321643', '', ( #74 ) ) ;
#220 = CARTESIAN_POINT ( 'NONE',  ( -7.204775986336370584E-31, 2.527095233785228263E-32, -2.063529856563288666E-16 ) ) ;
#221 = COORDINATED_UNIVERSAL_TIME_OFFSET ( 1, 0, .AHEAD. ) ;
#222 = CALENDAR_DATE ( 2021, 2, 12 ) ;
#223 = LOCAL_TIME ( 13, 55, 58.00000000000000000, #59 ) ;
#224 = VERTEX_POINT ( 'NONE', #56 ) ;
#225 = CC_DESIGN_PERSON_AND_ORGANIZATION_ASSIGNMENT ( #130, #144, ( #219 ) ) ;
#226 = ORIENTED_EDGE ( 'NONE', *, *, #190, .F. ) ;
#227 = EDGE_LOOP ( 'NONE', ( #226 ) ) ;
#228 = ORIENTED_EDGE ( 'NONE', *, *, #154, .T. ) ;
#229 = CARTESIAN_POINT ( 'NONE',  ( 0.0000000000000000000, 0.0000000000000000000, 0.0000000000000000000 ) ) ;
#230 = CIRCLE ( 'NONE', #138, 1.999999999999991784 ) ;
#231 = DESIGN_CONTEXT ( 'detailed design', #101, 'design' ) ;
#232 = DIRECTION ( 'NONE',  ( 3.491481338843133355E-15, -1.224646799147353207E-16, 1.000000000000000000 ) ) ;
#233 = DIRECTION ( 'NONE',  ( 0.0000000000000000000, 1.000000000000000000, 0.0000000000000000000 ) ) ;
#234 = ADVANCED_FACE ( 'NONE', ( #125, #33 ), #37, .T. ) ;
#235 = DIRECTION ( 'NONE',  ( -3.491481338843133355E-15, 1.224646799147353207E-16, -1.000000000000000000 ) ) ;
#236 = CIRCLE ( 'NONE', #32, 2.084999999999999964 ) ;
#237 = CARTESIAN_POINT ( 'NONE',  ( 2.793185071074506684E-13, 1.199807826129472128E-32, 80.00000000000000000 ) ) ;
#238 = LOCAL_TIME ( 13, 55, 58.00000000000000000, #75 ) ;
#239 = CIRCLE ( 'NONE', #133, 2.084999999999999964 ) ;
#240 = PRODUCT_DEFINITION_SHAPE ( 'NONE', 'NONE',  #6 ) ;
#241 = APPROVAL_ROLE ( '' ) ;
#242 = VERTEX_POINT ( 'NONE', #129 ) ;
#243 = APPROVAL_STATUS ( 'not_yet_approved' ) ;
ENDSEC;
END-ISO-10303-21;
