ISO-10303-21;
HEADER;
FILE_DESCRIPTION (( 'STEP AP203' ),
    '1' );
FILE_NAME ('321642.step',
    '2021-12-02T12:55:57',
    ( '' ),
    ( '' ),
    'SwSTEP 2.0',
    'SolidWorks 2019',
    '' );
FILE_SCHEMA (( 'CONFIG_CONTROL_DESIGN' ));
ENDSEC;

DATA;
#1 = ADVANCED_BREP_SHAPE_REPRESENTATION ( '321642', ( #11, #18, #180 ), #119 ) ;
#2 = APPROVAL_PERSON_ORGANIZATION ( #240, #241, #71 ) ;
#3 = EDGE_LOOP ( 'NONE', ( #156 ) ) ;
#4 = EDGE_LOOP ( 'NONE', ( #136 ) ) ;
#5 = CYLINDRICAL_SURFACE ( 'NONE', #237, 1.999999999999996669 ) ;
#6 = DIRECTION ( 'NONE',  ( -3.491481338843133355E-15, 1.224646799147353207E-16, -1.000000000000000000 ) ) ;
#7 = CARTESIAN_POINT ( 'NONE',  ( 4.189777606611760026E-14, -1.469576158976823947E-15, 12.00000000000000000 ) ) ;
#8 = FACE_OUTER_BOUND ( 'NONE', #188, .T. ) ;
#9 = AXIS2_PLACEMENT_3D ( 'NONE', #160, #87, #213 ) ;
#10 = PLANE ( 'NONE',  #145 ) ;
#11 = MANIFOLD_SOLID_BREP ( 'Corps-Déplacer/Copier1[1]', #67 ) ;
#12 = DIRECTION ( 'NONE',  ( -3.491481338843133355E-15, 1.224646799147353207E-16, -1.000000000000000000 ) ) ;
#13 = PERSON_AND_ORGANIZATION_ROLE ( 'creator' ) ;
#14 = COORDINATED_UNIVERSAL_TIME_OFFSET ( 1, 0, .AHEAD. ) ;
#15 = DATE_TIME_ROLE ( 'classification_date' ) ;
#16 = APPROVAL_DATE_TIME ( #116, #241 ) ;
#17 = APPLICATION_CONTEXT ( 'configuration controlled 3d designs of mechanical parts and assemblies' ) ;
#18 = MANIFOLD_SOLID_BREP ( 'Corps-Déplacer/Copier1[2]', #19 ) ;
#19 = CLOSED_SHELL ( 'NONE', ( #215, #219, #236, #170 ) ) ;
#20 = CIRCLE ( 'NONE', #164, 2.000000000000000888 ) ;
#21 = DIRECTION ( 'NONE',  ( -3.491481338843133355E-15, 1.224646799147353207E-16, -1.000000000000000000 ) ) ;
#22 = EDGE_CURVE ( 'NONE', #64, #64, #207, .T. ) ;
#23 = DIRECTION ( 'NONE',  ( 0.0000000000000000000, 1.000000000000000000, 0.0000000000000000000 ) ) ;
#24 = DIRECTION ( 'NONE',  ( 4.275831445896958607E-31, 1.000000000000000000, 1.224646799147353207E-16 ) ) ;
#25 = AXIS2_PLACEMENT_3D ( 'NONE', #109, #84, #121 ) ;
#26 = CC_DESIGN_APPROVAL ( #231, ( #43 ) ) ;
#27 = FACE_OUTER_BOUND ( 'NONE', #78, .T. ) ;
#28 = DIRECTION ( 'NONE',  ( 3.491481338843133355E-15, -1.224646799147353207E-16, 1.000000000000000000 ) ) ;
#29 = UNCERTAINTY_MEASURE_WITH_UNIT (LENGTH_MEASURE( 1.000000000000000082E-05 ), #152, 'distance_accuracy_value', 'NONE');
#30 = CARTESIAN_POINT ( 'NONE',  ( 4.189777606611760026E-14, 2.079999999999998739, 12.00000000000000000 ) ) ;
#31 = CIRCLE ( 'NONE', #105, 1.679999999999999050 ) ;
#32 = CC_DESIGN_SECURITY_CLASSIFICATION ( #154, ( #141 ) ) ;
#33 = VERTEX_POINT ( 'NONE', #62 ) ;
#34 = VERTEX_POINT ( 'NONE', #214 ) ;
#35 = CARTESIAN_POINT ( 'NONE',  ( 0.0000000000000000000, 0.0000000000000000000, 0.0000000000000000000 ) ) ;
#36 = CIRCLE ( 'NONE', #191, 2.080000000000000071 ) ;
#37 = CALENDAR_DATE ( 2021, 2, 12 ) ;
#38 = PERSON_AND_ORGANIZATION ( #93, #91 ) ;
#39 = SECURITY_CLASSIFICATION_LEVEL ( 'unclassified' ) ;
#40 = CC_DESIGN_DATE_AND_TIME_ASSIGNMENT ( #95, #15, ( #154 ) ) ;
#41 = EDGE_LOOP ( 'NONE', ( #101 ) ) ;
#42 = EDGE_LOOP ( 'NONE', ( #157 ) ) ;
#43 = PRODUCT_DEFINITION ( 'UNKNOWN', '', #141, #233 ) ;
#44 = FACE_OUTER_BOUND ( 'NONE', #100, .T. ) ;
#45 = LOCAL_TIME ( 13, 55, 57.00000000000000000, #70 ) ;
#46 = DIRECTION ( 'NONE',  ( -3.491481338843133355E-15, 1.224646799147353207E-16, -1.000000000000000000 ) ) ;
#47 = VERTEX_POINT ( 'NONE', #30 ) ;
#48 = VERTEX_POINT ( 'NONE', #126 ) ;
#49 = ADVANCED_FACE ( 'NONE', ( #59, #61 ), #80, .T. ) ;
#50 = FACE_BOUND ( 'NONE', #120, .T. ) ;
#51 = PERSON_AND_ORGANIZATION_ROLE ( 'design_owner' ) ;
#52 = AXIS2_PLACEMENT_3D ( 'NONE', #88, #46, #182 ) ;
#53 = DATE_AND_TIME ( #73, #122 ) ;
#54 = COORDINATED_UNIVERSAL_TIME_OFFSET ( 1, 0, .AHEAD. ) ;
#55 =( NAMED_UNIT ( * ) PLANE_ANGLE_UNIT ( ) SI_UNIT ( $, .RADIAN. ) );
#56 = ORIENTED_EDGE ( 'NONE', *, *, #131, .T. ) ;
#57 = ORIENTED_EDGE ( 'NONE', *, *, #131, .F. ) ;
#58 = ORIENTED_EDGE ( 'NONE', *, *, #22, .T. ) ;
#59 = FACE_OUTER_BOUND ( 'NONE', #225, .T. ) ;
#60 = APPROVAL_PERSON_ORGANIZATION ( #129, #231, #69 ) ;
#61 = FACE_BOUND ( 'NONE', #210, .T. ) ;
#62 = CARTESIAN_POINT ( 'NONE',  ( 2.779219145719134403E-13, 1.999999999999991340, 79.60000000000000853 ) ) ;
#63 = CARTESIAN_POINT ( 'NONE',  ( 4.189777606611760026E-14, 1.559750173968330161E-32, 12.00000000000000000 ) ) ;
#64 = VERTEX_POINT ( 'NONE', #142 ) ;
#65 = DIRECTION ( 'NONE',  ( 4.275831445896958607E-31, 1.000000000000000000, 1.224646799147353207E-16 ) ) ;
#66 = CYLINDRICAL_SURFACE ( 'NONE', #211, 2.080000000000000071 ) ;
#67 = CLOSED_SHELL ( 'NONE', ( #90, #137, #81, #49, #190 ) ) ;
#68 = CONICAL_SURFACE ( 'NONE', #52, 2.080000000000000071, 0.5235987755982989267 ) ;
#69 = APPROVAL_ROLE ( '' ) ;
#70 = COORDINATED_UNIVERSAL_TIME_OFFSET ( 1, 0, .AHEAD. ) ;
#71 = APPROVAL_ROLE ( '' ) ;
#72 = LOCAL_TIME ( 13, 55, 57.00000000000000000, #167 ) ;
#73 = CALENDAR_DATE ( 2021, 2, 12 ) ;
#74 = DIRECTION ( 'NONE',  ( 4.275831445896958607E-31, 1.000000000000000000, 1.224646799147353207E-16 ) ) ;
#75 = CIRCLE ( 'NONE', #195, 1.999999999999991784 ) ;
#76 = ORIENTED_EDGE ( 'NONE', *, *, #22, .F. ) ;
#77 = CC_DESIGN_PERSON_AND_ORGANIZATION_ASSIGNMENT ( #206, #13, ( #43 ) ) ;
#78 = EDGE_LOOP ( 'NONE', ( #99 ) ) ;
#79 = CARTESIAN_POINT ( 'NONE',  ( 0.0000000000000000000, 0.0000000000000000000, 0.0000000000000000000 ) ) ;
#80 = CONICAL_SURFACE ( 'NONE', #134, 1.600000000000000977, 0.7853981633974512766 ) ;
#81 = ADVANCED_FACE ( 'NONE', ( #104, #179 ), #5, .T. ) ;
#82 = CARTESIAN_POINT ( 'NONE',  ( -7.183396829106886746E-31, 2.519596434871919467E-32, -2.057406622567552284E-16 ) ) ;
#83 = DIRECTION ( 'NONE',  ( 0.0000000000000000000, 1.000000000000000000, 0.0000000000000000000 ) ) ;
#84 = DIRECTION ( 'NONE',  ( 3.491481338843133355E-15, -1.224646799147353207E-16, 1.000000000000000000 ) ) ;
#85 = AXIS2_PLACEMENT_3D ( 'NONE', #163, #12, #65 ) ;
#86 = EDGE_CURVE ( 'NONE', #48, #48, #31, .T. ) ;
#87 = DIRECTION ( 'NONE',  ( -3.491481338843133355E-15, 1.224646799147353207E-16, -1.000000000000000000 ) ) ;
#88 = CARTESIAN_POINT ( 'NONE',  ( 4.189777606611760026E-14, -1.469576158976823947E-15, 12.00000000000000000 ) ) ;
#89 = PRODUCT ( '321642', '321642', '', ( #223 ) ) ;
#90 = ADVANCED_FACE ( 'NONE', ( #153 ), #224, .F. ) ;
#91 = ORGANIZATION ( 'UNSPECIFIED', 'UNSPECIFIED', '' ) ;
#92 = APPROVAL_DATE_TIME ( #128, #177 ) ;
#93 = PERSON ( 'UNSPECIFIED', 'UNSPECIFIED', 'UNSPECIFIED', ('UNSPECIFIED'), ('UNSPECIFIED'), ('UNSPECIFIED') ) ;
#94 = APPROVAL_STATUS ( 'not_yet_approved' ) ;
#95 = DATE_AND_TIME ( #115, #45 ) ;
#96 = CIRCLE ( 'NONE', #114, 2.080000000000000071 ) ;
#97 = DIRECTION ( 'NONE',  ( 1.000000000000000000, 0.0000000000000000000, 0.0000000000000000000 ) ) ;
#98 = CC_DESIGN_PERSON_AND_ORGANIZATION_ASSIGNMENT ( #238, #187, ( #141 ) ) ;
#99 = ORIENTED_EDGE ( 'NONE', *, *, #149, .F. ) ;
#100 = EDGE_LOOP ( 'NONE', ( #58 ) ) ;
#101 = ORIENTED_EDGE ( 'NONE', *, *, #184, .F. ) ;
#102 = APPLICATION_CONTEXT ( 'configuration controlled 3d designs of mechanical parts and assemblies' ) ;
#103 = EDGE_LOOP ( 'NONE', ( #227 ) ) ;
#104 = FACE_OUTER_BOUND ( 'NONE', #175, .T. ) ;
#105 = AXIS2_PLACEMENT_3D ( 'NONE', #208, #243, #74 ) ;
#106 = DIRECTION ( 'NONE',  ( -3.491481338843133355E-15, 1.224646799147353207E-16, -1.000000000000000000 ) ) ;
#107 = CARTESIAN_POINT ( 'NONE',  ( 2.779219145719134403E-13, -9.748188521212932624E-15, 79.60000000000000853 ) ) ;
#108 = PRODUCT_RELATED_PRODUCT_CATEGORY ( 'detail', '', ( #89 ) ) ;
#109 = CARTESIAN_POINT ( 'NONE',  ( 4.189777606611760026E-14, 1.559750173968330161E-32, 12.00000000000000000 ) ) ;
#110 = AXIS2_PLACEMENT_3D ( 'NONE', #226, #192, #228 ) ;
#111 = VERTEX_POINT ( 'NONE', #125 ) ;
#112 = EDGE_CURVE ( 'NONE', #201, #201, #75, .T. ) ;
#113 = APPLICATION_PROTOCOL_DEFINITION ( 'international standard', 'config_control_design', 1994, #102 ) ;
#114 = AXIS2_PLACEMENT_3D ( 'NONE', #234, #106, #83 ) ;
#115 = CALENDAR_DATE ( 2021, 2, 12 ) ;
#116 = DATE_AND_TIME ( #221, #174 ) ;
#117 = PERSON_AND_ORGANIZATION ( #93, #91 ) ;
#118 = AXIS2_PLACEMENT_3D ( 'NONE', #199, #166, #235 ) ;
#119 =( GEOMETRIC_REPRESENTATION_CONTEXT ( 3 ) GLOBAL_UNCERTAINTY_ASSIGNED_CONTEXT ( ( #29 ) ) GLOBAL_UNIT_ASSIGNED_CONTEXT ( ( #152, #55, #171 ) ) REPRESENTATION_CONTEXT ( 'NONE', 'WORKASPACE' ) );
#120 = EDGE_LOOP ( 'NONE', ( #173 ) ) ;
#121 = DIRECTION ( 'NONE',  ( -4.275831445896958607E-31, -1.000000000000000000, -1.224646799147353207E-16 ) ) ;
#122 = LOCAL_TIME ( 13, 55, 57.00000000000000000, #14 ) ;
#123 = DIRECTION ( 'NONE',  ( -4.275831445896957731E-31, -1.000000000000000000, -1.224646799147353207E-16 ) ) ;
#124 = CC_DESIGN_PERSON_AND_ORGANIZATION_ASSIGNMENT ( #172, #51, ( #89 ) ) ;
#125 = CARTESIAN_POINT ( 'NONE',  ( 4.189777606611760026E-14, 2.079999999999998739, 12.00000000000000000 ) ) ;
#126 = CARTESIAN_POINT ( 'NONE',  ( -8.552847072295026068E-47, 1.679999999999999050, 0.0000000000000000000 ) ) ;
#127 = DIRECTION ( 'NONE',  ( -3.491481338843133355E-15, 1.224646799147353207E-16, -1.000000000000000000 ) ) ;
#128 = DATE_AND_TIME ( #204, #72 ) ;
#129 = PERSON_AND_ORGANIZATION ( #93, #91 ) ;
#130 = PERSON_AND_ORGANIZATION ( #93, #91 ) ;
#131 = EDGE_CURVE ( 'NONE', #33, #33, #20, .T. ) ;
#132 = DATE_TIME_ROLE ( 'creation_date' ) ;
#133 = ORIENTED_EDGE ( 'NONE', *, *, #184, .T. ) ;
#134 = AXIS2_PLACEMENT_3D ( 'NONE', #138, #21, #23 ) ;
#135 = CC_DESIGN_APPROVAL ( #241, ( #154 ) ) ;
#136 = ORIENTED_EDGE ( 'NONE', *, *, #200, .T. ) ;
#137 = ADVANCED_FACE ( 'NONE', ( #183, #27 ), #68, .T. ) ;
#138 = CARTESIAN_POINT ( 'NONE',  ( 2.793185071074506684E-13, -9.797174393178826052E-15, 80.00000000000000000 ) ) ;
#139 = FACE_OUTER_BOUND ( 'NONE', #41, .T. ) ;
#140 = DIRECTION ( 'NONE',  ( 3.491481338843133355E-15, -1.224646799147353207E-16, 1.000000000000000000 ) ) ;
#141 = PRODUCT_DEFINITION_FORMATION_WITH_SPECIFIED_SOURCE ( 'ANY', '', #89, .NOT_KNOWN. ) ;
#142 = CARTESIAN_POINT ( 'NONE',  ( 1.396592535537253737E-15, 2.080000000000000071, 0.4000000000000000777 ) ) ;
#143 = FACE_OUTER_BOUND ( 'NONE', #178, .T. ) ;
#144 = DIRECTION ( 'NONE',  ( -4.275831445896958607E-31, -1.000000000000000000, -1.224646799147353207E-16 ) ) ;
#145 = AXIS2_PLACEMENT_3D ( 'NONE', #63, #140, #144 ) ;
#146 = APPROVAL_STATUS ( 'not_yet_approved' ) ;
#147 = DATE_AND_TIME ( #37, #150 ) ;
#148 = COORDINATED_UNIVERSAL_TIME_OFFSET ( 1, 0, .AHEAD. ) ;
#149 = EDGE_CURVE ( 'NONE', #111, #111, #96, .T. ) ;
#150 = LOCAL_TIME ( 13, 55, 57.00000000000000000, #54 ) ;
#151 = APPLICATION_PROTOCOL_DEFINITION ( 'international standard', 'config_control_design', 1994, #17 ) ;
#152 =( LENGTH_UNIT ( ) NAMED_UNIT ( * ) SI_UNIT ( .MILLI., .METRE. ) );
#153 = FACE_OUTER_BOUND ( 'NONE', #3, .T. ) ;
#154 = SECURITY_CLASSIFICATION ( '', '', #39 ) ;
#155 = ORIENTED_EDGE ( 'NONE', *, *, #112, .F. ) ;
#156 = ORIENTED_EDGE ( 'NONE', *, *, #149, .T. ) ;
#157 = ORIENTED_EDGE ( 'NONE', *, *, #86, .T. ) ;
#158 = CONICAL_SURFACE ( 'NONE', #218, 1.679999999999999050, 0.7853981633974498333 ) ;
#159 = EDGE_LOOP ( 'NONE', ( #56 ) ) ;
#160 = CARTESIAN_POINT ( 'NONE',  ( 2.793185071074506684E-13, 1.199807826129472128E-32, 80.00000000000000000 ) ) ;
#161 = CC_DESIGN_DATE_AND_TIME_ASSIGNMENT ( #53, #132, ( #43 ) ) ;
#162 = DIRECTION ( 'NONE',  ( -3.491481338843133355E-15, 1.224646799147353207E-16, -1.000000000000000000 ) ) ;
#163 = CARTESIAN_POINT ( 'NONE',  ( -3.591698414553443373E-31, 1.259798217435959734E-32, -1.028703311283776142E-16 ) ) ;
#164 = AXIS2_PLACEMENT_3D ( 'NONE', #107, #6, #229 ) ;
#165 = CARTESIAN_POINT ( 'NONE',  ( 0.0000000000000000000, 0.0000000000000000000, 0.0000000000000000000 ) ) ;
#166 = DIRECTION ( 'NONE',  ( -3.491481338843133355E-15, 1.224646799147353207E-16, -1.000000000000000000 ) ) ;
#167 = COORDINATED_UNIVERSAL_TIME_OFFSET ( 1, 0, .AHEAD. ) ;
#168 = CC_DESIGN_APPROVAL ( #177, ( #141 ) ) ;
#169 = APPROVAL_ROLE ( '' ) ;
#170 = ADVANCED_FACE ( 'NONE', ( #44, #50 ), #158, .T. ) ;
#171 =( NAMED_UNIT ( * ) SI_UNIT ( $, .STERADIAN. ) SOLID_ANGLE_UNIT ( ) );
#172 = PERSON_AND_ORGANIZATION ( #93, #91 ) ;
#173 = ORIENTED_EDGE ( 'NONE', *, *, #86, .F. ) ;
#174 = LOCAL_TIME ( 13, 55, 57.00000000000000000, #148 ) ;
#175 = EDGE_LOOP ( 'NONE', ( #155 ) ) ;
#176 = ORIENTED_EDGE ( 'NONE', *, *, #200, .F. ) ;
#177 = APPROVAL ( #146, 'UNSPECIFIED' ) ;
#178 = EDGE_LOOP ( 'NONE', ( #76 ) ) ;
#179 = FACE_OUTER_BOUND ( 'NONE', #159, .T. ) ;
#180 = AXIS2_PLACEMENT_3D ( 'NONE', #35, #220, #97 ) ;
#181 = CARTESIAN_POINT ( 'NONE',  ( 4.238156991192204513E-14, -1.486545362796424260E-15, 12.13856406460552506 ) ) ;
#182 = DIRECTION ( 'NONE',  ( 0.0000000000000000000, 1.000000000000000000, 0.0000000000000000000 ) ) ;
#183 = FACE_BOUND ( 'NONE', #103, .T. ) ;
#184 = EDGE_CURVE ( 'NONE', #34, #34, #222, .T. ) ;
#185 = CARTESIAN_POINT ( 'NONE',  ( 4.238156991192204513E-14, 1.999999999999990452, 12.13856406460552506 ) ) ;
#186 = APPROVAL_DATE_TIME ( #147, #231 ) ;
#187 = PERSON_AND_ORGANIZATION_ROLE ( 'design_supplier' ) ;
#188 = EDGE_LOOP ( 'NONE', ( #176 ) ) ;
#189 = PRODUCT_DEFINITION_SHAPE ( 'NONE', 'NONE',  #43 ) ;
#190 = ADVANCED_FACE ( 'NONE', ( #139 ), #232, .F. ) ;
#191 = AXIS2_PLACEMENT_3D ( 'NONE', #7, #162, #230 ) ;
#192 = DIRECTION ( 'NONE',  ( -3.491481338843133355E-15, 1.224646799147353207E-16, -1.000000000000000000 ) ) ;
#193 = CC_DESIGN_PERSON_AND_ORGANIZATION_ASSIGNMENT ( #117, #239, ( #154 ) ) ;
#194 = DIRECTION ( 'NONE',  ( -3.491481338843133355E-15, 1.224646799147353207E-16, -1.000000000000000000 ) ) ;
#195 = AXIS2_PLACEMENT_3D ( 'NONE', #181, #127, #196 ) ;
#196 = DIRECTION ( 'NONE',  ( 0.0000000000000000000, 1.000000000000000000, 0.0000000000000000000 ) ) ;
#197 = FACE_OUTER_BOUND ( 'NONE', #42, .T. ) ;
#198 = SHAPE_DEFINITION_REPRESENTATION ( #189, #1 ) ;
#199 = CARTESIAN_POINT ( 'NONE',  ( 2.793185071074506684E-13, -9.797174393178826052E-15, 80.00000000000000000 ) ) ;
#200 = EDGE_CURVE ( 'NONE', #47, #47, #36, .T. ) ;
#201 = VERTEX_POINT ( 'NONE', #185 ) ;
#202 = PLANE ( 'NONE',  #85 ) ;
#203 = PERSON_AND_ORGANIZATION_ROLE ( 'creator' ) ;
#204 = CALENDAR_DATE ( 2021, 2, 12 ) ;
#205 = APPROVAL_STATUS ( 'not_yet_approved' ) ;
#206 = PERSON_AND_ORGANIZATION ( #93, #91 ) ;
#207 = CIRCLE ( 'NONE', #110, 2.080000000000000071 ) ;
#208 = CARTESIAN_POINT ( 'NONE',  ( -7.183396829106886746E-31, 2.519596434871919467E-32, -2.057406622567552284E-16 ) ) ;
#209 = CC_DESIGN_PERSON_AND_ORGANIZATION_ASSIGNMENT ( #38, #203, ( #141 ) ) ;
#210 = EDGE_LOOP ( 'NONE', ( #133 ) ) ;
#211 = AXIS2_PLACEMENT_3D ( 'NONE', #165, #216, #217 ) ;
#212 = FACE_OUTER_BOUND ( 'NONE', #4, .T. ) ;
#213 = DIRECTION ( 'NONE',  ( 4.275831445896958607E-31, 1.000000000000000000, 1.224646799147353207E-16 ) ) ;
#214 = CARTESIAN_POINT ( 'NONE',  ( 2.793185071074506684E-13, 1.599999999999991207, 80.00000000000000000 ) ) ;
#215 = ADVANCED_FACE ( 'NONE', ( #212, #143 ), #66, .T. ) ;
#216 = DIRECTION ( 'NONE',  ( -3.491481338843133355E-15, 1.224646799147353207E-16, -1.000000000000000000 ) ) ;
#217 = DIRECTION ( 'NONE',  ( 4.275831445896958607E-31, 1.000000000000000000, 1.224646799147353207E-16 ) ) ;
#218 = AXIS2_PLACEMENT_3D ( 'NONE', #82, #28, #123 ) ;
#219 = ADVANCED_FACE ( 'NONE', ( #8 ), #10, .T. ) ;
#220 = DIRECTION ( 'NONE',  ( 0.0000000000000000000, 0.0000000000000000000, 1.000000000000000000 ) ) ;
#221 = CALENDAR_DATE ( 2021, 2, 12 ) ;
#222 = CIRCLE ( 'NONE', #118, 1.600000000000000977 ) ;
#223 = MECHANICAL_CONTEXT ( 'NONE', #17, 'mechanical' ) ;
#224 = PLANE ( 'NONE',  #25 ) ;
#225 = EDGE_LOOP ( 'NONE', ( #57 ) ) ;
#226 = CARTESIAN_POINT ( 'NONE',  ( 1.396592535537252750E-15, -4.898587196589410610E-17, 0.3999999999999998002 ) ) ;
#227 = ORIENTED_EDGE ( 'NONE', *, *, #112, .T. ) ;
#228 = DIRECTION ( 'NONE',  ( 4.629639289392393810E-31, 1.000000000000000000, 1.303127611160462041E-16 ) ) ;
#229 = DIRECTION ( 'NONE',  ( 0.0000000000000000000, 1.000000000000000000, 0.0000000000000000000 ) ) ;
#230 = DIRECTION ( 'NONE',  ( 0.0000000000000000000, 1.000000000000000000, 0.0000000000000000000 ) ) ;
#231 = APPROVAL ( #205, 'UNSPECIFIED' ) ;
#232 = PLANE ( 'NONE',  #9 ) ;
#233 = DESIGN_CONTEXT ( 'detailed design', #102, 'design' ) ;
#234 = CARTESIAN_POINT ( 'NONE',  ( 4.189777606611760026E-14, -1.469576158976823947E-15, 12.00000000000000000 ) ) ;
#235 = DIRECTION ( 'NONE',  ( 0.0000000000000000000, 1.000000000000000000, 0.0000000000000000000 ) ) ;
#236 = ADVANCED_FACE ( 'NONE', ( #197 ), #202, .T. ) ;
#237 = AXIS2_PLACEMENT_3D ( 'NONE', #79, #194, #24 ) ;
#238 = PERSON_AND_ORGANIZATION ( #93, #91 ) ;
#239 = PERSON_AND_ORGANIZATION_ROLE ( 'classification_officer' ) ;
#240 = PERSON_AND_ORGANIZATION ( #93, #91 ) ;
#241 = APPROVAL ( #94, 'UNSPECIFIED' ) ;
#242 = APPROVAL_PERSON_ORGANIZATION ( #130, #177, #169 ) ;
#243 = DIRECTION ( 'NONE',  ( -3.491481338843133355E-15, 1.224646799147353207E-16, -1.000000000000000000 ) ) ;
ENDSEC;
END-ISO-10303-21;
