ISO-10303-21;
HEADER;
FILE_DESCRIPTION (( 'STEP AP203' ),
    '1' );
FILE_NAME ('321640.step',
    '2021-12-02T12:55:56',
    ( '' ),
    ( '' ),
    'SwSTEP 2.0',
    'SolidWorks 2019',
    '' );
FILE_SCHEMA (( 'CONFIG_CONTROL_DESIGN' ));
ENDSEC;

DATA;
#1 = PERSON_AND_ORGANIZATION ( #40, #155 ) ;
#2 = EDGE_LOOP ( 'NONE', ( #113 ) ) ;
#3 = ORIENTED_EDGE ( 'NONE', *, *, #171, .T. ) ;
#4 = COORDINATED_UNIVERSAL_TIME_OFFSET ( 1, 0, .AHEAD. ) ;
#5 = AXIS2_PLACEMENT_3D ( 'NONE', #164, #211, #16 ) ;
#6 = CARTESIAN_POINT ( 'NONE',  ( -7.140638514647914690E-31, 2.504598837045300235E-32, -2.045160154576078039E-16 ) ) ;
#7 = FACE_OUTER_BOUND ( 'NONE', #233, .T. ) ;
#8 = AXIS2_PLACEMENT_3D ( 'NONE', #203, #87, #202 ) ;
#9 = CARTESIAN_POINT ( 'NONE',  ( 0.0000000000000000000, 0.0000000000000000000, 0.0000000000000000000 ) ) ;
#10 = DIRECTION ( 'NONE',  ( -3.491481338843133355E-15, 1.224646799147353207E-16, -1.000000000000000000 ) ) ;
#11 = DIRECTION ( 'NONE',  ( 0.0000000000000000000, 1.000000000000000000, 0.0000000000000000000 ) ) ;
#12 = VERTEX_POINT ( 'NONE', #240 ) ;
#13 = CALENDAR_DATE ( 2021, 2, 12 ) ;
#14 = APPROVAL_DATE_TIME ( #165, #49 ) ;
#15 = APPROVAL_STATUS ( 'not_yet_approved' ) ;
#16 = DIRECTION ( 'NONE',  ( 4.275831445896958607E-31, 1.000000000000000000, 1.224646799147353207E-16 ) ) ;
#17 = PERSON_AND_ORGANIZATION ( #40, #155 ) ;
#18 = EDGE_LOOP ( 'NONE', ( #192 ) ) ;
#19 = PERSON_AND_ORGANIZATION_ROLE ( 'creator' ) ;
#20 = ORIENTED_EDGE ( 'NONE', *, *, #208, .T. ) ;
#21 = DIRECTION ( 'NONE',  ( 4.275831445896958607E-31, 1.000000000000000000, 1.224646799147353207E-16 ) ) ;
#22 = FACE_OUTER_BOUND ( 'NONE', #170, .T. ) ;
#23 = APPLICATION_CONTEXT ( 'configuration controlled 3d designs of mechanical parts and assemblies' ) ;
#24 = PLANE ( 'NONE',  #41 ) ;
#25 = CARTESIAN_POINT ( 'NONE',  ( 4.232109568119648873E-14, -1.484424212318974172E-15, 12.12124355652983532 ) ) ;
#26 = DIRECTION ( 'NONE',  ( 3.491481338843133355E-15, -1.224646799147353207E-16, 1.000000000000000000 ) ) ;
#27 = VERTEX_POINT ( 'NONE', #184 ) ;
#28 = AXIS2_PLACEMENT_3D ( 'NONE', #6, #234, #21 ) ;
#29 = DIRECTION ( 'NONE',  ( 0.0000000000000000000, 1.000000000000000000, 0.0000000000000000000 ) ) ;
#30 = CC_DESIGN_APPROVAL ( #49, ( #173 ) ) ;
#31 = APPLICATION_PROTOCOL_DEFINITION ( 'international standard', 'config_control_design', 1994, #23 ) ;
#32 = COORDINATED_UNIVERSAL_TIME_OFFSET ( 1, 0, .AHEAD. ) ;
#33 = MANIFOLD_SOLID_BREP ( 'Corps-Déplacer/Copier1[2]', #80 ) ;
#34 = EDGE_LOOP ( 'NONE', ( #20 ) ) ;
#35 = EDGE_CURVE ( 'NONE', #27, #27, #161, .T. ) ;
#36 = DATE_AND_TIME ( #97, #137 ) ;
#37 = ORIENTED_EDGE ( 'NONE', *, *, #35, .T. ) ;
#38 = DESIGN_CONTEXT ( 'detailed design', #23, 'design' ) ;
#39 = CC_DESIGN_APPROVAL ( #180, ( #237 ) ) ;
#40 = PERSON ( 'UNSPECIFIED', 'UNSPECIFIED', 'UNSPECIFIED', ('UNSPECIFIED'), ('UNSPECIFIED'), ('UNSPECIFIED') ) ;
#41 = AXIS2_PLACEMENT_3D ( 'NONE', #58, #141, #236 ) ;
#42 = DIRECTION ( 'NONE',  ( -3.491481338843133355E-15, 1.224646799147353207E-16, -1.000000000000000000 ) ) ;
#43 = FACE_OUTER_BOUND ( 'NONE', #198, .T. ) ;
#44 = CIRCLE ( 'NONE', #28, 1.669999999999998597 ) ;
#45 = DIRECTION ( 'NONE',  ( 4.275831445896958607E-31, 1.000000000000000000, 1.224646799147353207E-16 ) ) ;
#46 = CARTESIAN_POINT ( 'NONE',  ( -7.140638514647914690E-31, 2.504598837045300235E-32, -2.045160154576078039E-16 ) ) ;
#47 = CC_DESIGN_PERSON_AND_ORGANIZATION_ASSIGNMENT ( #195, #19, ( #237 ) ) ;
#48 = VERTEX_POINT ( 'NONE', #189 ) ;
#49 = APPROVAL ( #15, 'UNSPECIFIED' ) ;
#50 = CALENDAR_DATE ( 2021, 2, 12 ) ;
#51 = APPLICATION_PROTOCOL_DEFINITION ( 'international standard', 'config_control_design', 1994, #106 ) ;
#52 = DIRECTION ( 'NONE',  ( -3.491481338843133355E-15, 1.224646799147353207E-16, -1.000000000000000000 ) ) ;
#53 = APPROVAL_STATUS ( 'not_yet_approved' ) ;
#54 = ORIENTED_EDGE ( 'NONE', *, *, #123, .F. ) ;
#55 = DATE_AND_TIME ( #115, #85 ) ;
#56 = PERSON_AND_ORGANIZATION ( #40, #155 ) ;
#57 = DIRECTION ( 'NONE',  ( -3.491481338843133355E-15, 1.224646799147353207E-16, -1.000000000000000000 ) ) ;
#58 = CARTESIAN_POINT ( 'NONE',  ( -3.570319257323957345E-31, 1.252299418522650117E-32, -1.022580077288039020E-16 ) ) ;
#59 = FACE_OUTER_BOUND ( 'NONE', #117, .T. ) ;
#60 = EDGE_CURVE ( 'NONE', #188, #188, #44, .T. ) ;
#61 = CYLINDRICAL_SURFACE ( 'NONE', #5, 2.069999999999999840 ) ;
#62 = ORIENTED_EDGE ( 'NONE', *, *, #70, .T. ) ;
#63 = CARTESIAN_POINT ( 'NONE',  ( 4.189777606611760026E-14, -1.469576158976823947E-15, 12.00000000000000000 ) ) ;
#64 = COORDINATED_UNIVERSAL_TIME_OFFSET ( 1, 0, .AHEAD. ) ;
#65 = AXIS2_PLACEMENT_3D ( 'NONE', #179, #57, #100 ) ;
#66 = CARTESIAN_POINT ( 'NONE',  ( 0.0000000000000000000, 1.669999999999998597, 0.0000000000000000000 ) ) ;
#67 = APPROVAL_STATUS ( 'not_yet_approved' ) ;
#68 = PRODUCT_RELATED_PRODUCT_CATEGORY ( 'detail', '', ( #140 ) ) ;
#69 = AXIS2_PLACEMENT_3D ( 'NONE', #209, #102, #204 ) ;
#70 = EDGE_CURVE ( 'NONE', #48, #48, #229, .T. ) ;
#71 = ADVANCED_FACE ( 'NONE', ( #142 ), #157, .F. ) ;
#72 = APPROVAL_DATE_TIME ( #36, #110 ) ;
#73 = ORIENTED_EDGE ( 'NONE', *, *, #60, .T. ) ;
#74 = AXIS2_PLACEMENT_3D ( 'NONE', #9, #82, #45 ) ;
#75 = PERSON_AND_ORGANIZATION ( #40, #155 ) ;
#76 = ORIENTED_EDGE ( 'NONE', *, *, #70, .F. ) ;
#77 = DATE_TIME_ROLE ( 'classification_date' ) ;
#78 = ORIENTED_EDGE ( 'NONE', *, *, #208, .F. ) ;
#79 = CC_DESIGN_APPROVAL ( #110, ( #199 ) ) ;
#80 = CLOSED_SHELL ( 'NONE', ( #222, #129, #162, #83 ) ) ;
#81 = CARTESIAN_POINT ( 'NONE',  ( 2.793185071074506684E-13, -9.797174393178826052E-15, 80.00000000000000000 ) ) ;
#82 = DIRECTION ( 'NONE',  ( -3.491481338843133355E-15, 1.224646799147353207E-16, -1.000000000000000000 ) ) ;
#83 = ADVANCED_FACE ( 'NONE', ( #59, #143 ), #114, .T. ) ;
#84 = FACE_OUTER_BOUND ( 'NONE', #158, .T. ) ;
#85 = LOCAL_TIME ( 13, 55, 56.00000000000000000, #4 ) ;
#86 = CLOSED_SHELL ( 'NONE', ( #190, #243, #194, #153, #71 ) ) ;
#87 = DIRECTION ( 'NONE',  ( -3.491481338843133355E-15, 1.224646799147353207E-16, -1.000000000000000000 ) ) ;
#88 = FACE_BOUND ( 'NONE', #135, .T. ) ;
#89 =( NAMED_UNIT ( * ) SI_UNIT ( $, .STERADIAN. ) SOLID_ANGLE_UNIT ( ) );
#90 = AXIS2_PLACEMENT_3D ( 'NONE', #63, #52, #29 ) ;
#91 = PERSON_AND_ORGANIZATION_ROLE ( 'design_owner' ) ;
#92 = CC_DESIGN_PERSON_AND_ORGANIZATION_ASSIGNMENT ( #107, #91, ( #140 ) ) ;
#93 = VERTEX_POINT ( 'NONE', #105 ) ;
#94 = AXIS2_PLACEMENT_3D ( 'NONE', #168, #127, #130 ) ;
#95 = CIRCLE ( 'NONE', #8, 2.069999999999999840 ) ;
#96 = COORDINATED_UNIVERSAL_TIME_OFFSET ( 1, 0, .AHEAD. ) ;
#97 = CALENDAR_DATE ( 2021, 2, 12 ) ;
#98 = APPROVAL_DATE_TIME ( #118, #180 ) ;
#99 = EDGE_CURVE ( 'NONE', #93, #93, #95, .T. ) ;
#100 = DIRECTION ( 'NONE',  ( 0.0000000000000000000, 1.000000000000000000, 0.0000000000000000000 ) ) ;
#101 = DIRECTION ( 'NONE',  ( -4.275831445896958607E-31, -1.000000000000000000, -1.224646799147353207E-16 ) ) ;
#102 = DIRECTION ( 'NONE',  ( 3.491481338843133355E-15, -1.224646799147353207E-16, 1.000000000000000000 ) ) ;
#103 = DIRECTION ( 'NONE',  ( 4.275831445896958607E-31, 1.000000000000000000, 1.224646799147353207E-16 ) ) ;
#104 = DIRECTION ( 'NONE',  ( 0.0000000000000000000, 1.000000000000000000, 0.0000000000000000000 ) ) ;
#105 = CARTESIAN_POINT ( 'NONE',  ( 1.396592535537253737E-15, 2.069999999999999840, 0.4000000000000000777 ) ) ;
#106 = APPLICATION_CONTEXT ( 'configuration controlled 3d designs of mechanical parts and assemblies' ) ;
#107 = PERSON_AND_ORGANIZATION ( #40, #155 ) ;
#108 = LOCAL_TIME ( 13, 55, 56.00000000000000000, #64 ) ;
#109 = FACE_OUTER_BOUND ( 'NONE', #18, .T. ) ;
#110 = APPROVAL ( #53, 'UNSPECIFIED' ) ;
#111 = AXIS2_PLACEMENT_3D ( 'NONE', #125, #126, #182 ) ;
#112 = DATE_TIME_ROLE ( 'creation_date' ) ;
#113 = ORIENTED_EDGE ( 'NONE', *, *, #60, .F. ) ;
#114 = CONICAL_SURFACE ( 'NONE', #224, 1.669999999999998597, 0.7853981633974498333 ) ;
#115 = CALENDAR_DATE ( 2021, 2, 12 ) ;
#116 = EDGE_LOOP ( 'NONE', ( #196 ) ) ;
#117 = EDGE_LOOP ( 'NONE', ( #216 ) ) ;
#118 = DATE_AND_TIME ( #197, #159 ) ;
#119 = CIRCLE ( 'NONE', #65, 2.069999999999999840 ) ;
#120 = FACE_BOUND ( 'NONE', #34, .T. ) ;
#121 = MANIFOLD_SOLID_BREP ( 'Corps-Déplacer/Copier1[1]', #86 ) ;
#122 = CARTESIAN_POINT ( 'NONE',  ( 2.793185071074506684E-13, 1.199807826129472128E-32, 80.00000000000000000 ) ) ;
#123 = EDGE_CURVE ( 'NONE', #12, #12, #119, .T. ) ;
#124 = PLANE ( 'NONE',  #69 ) ;
#125 = CARTESIAN_POINT ( 'NONE',  ( 2.793185071074506684E-13, -9.797174393178826052E-15, 80.00000000000000000 ) ) ;
#126 = DIRECTION ( 'NONE',  ( -3.491481338843133355E-15, 1.224646799147353207E-16, -1.000000000000000000 ) ) ;
#127 = DIRECTION ( 'NONE',  ( 0.0000000000000000000, 0.0000000000000000000, 1.000000000000000000 ) ) ;
#128 = DATE_AND_TIME ( #50, #172 ) ;
#129 = ADVANCED_FACE ( 'NONE', ( #22 ), #177, .T. ) ;
#130 = DIRECTION ( 'NONE',  ( 1.000000000000000000, 0.0000000000000000000, 0.0000000000000000000 ) ) ;
#131 = AXIS2_PLACEMENT_3D ( 'NONE', #122, #226, #103 ) ;
#132 = SHAPE_DEFINITION_REPRESENTATION ( #220, #133 ) ;
#133 = ADVANCED_BREP_SHAPE_REPRESENTATION ( '321640', ( #121, #33, #94 ), #175 ) ;
#134 = APPROVAL_ROLE ( '' ) ;
#135 = EDGE_LOOP ( 'NONE', ( #62 ) ) ;
#136 = CC_DESIGN_PERSON_AND_ORGANIZATION_ASSIGNMENT ( #75, #232, ( #237 ) ) ;
#137 = LOCAL_TIME ( 13, 55, 56.00000000000000000, #96 ) ;
#138 = CONICAL_SURFACE ( 'NONE', #90, 2.069999999999999840, 0.5235987755983018133 ) ;
#139 = DIRECTION ( 'NONE',  ( 3.491481338843133355E-15, -1.224646799147353207E-16, 1.000000000000000000 ) ) ;
#140 = PRODUCT ( '321640', '321640', '', ( #210 ) ) ;
#141 = DIRECTION ( 'NONE',  ( -3.491481338843133355E-15, 1.224646799147353207E-16, -1.000000000000000000 ) ) ;
#142 = FACE_OUTER_BOUND ( 'NONE', #230, .T. ) ;
#143 = FACE_BOUND ( 'NONE', #2, .T. ) ;
#144 = CARTESIAN_POINT ( 'NONE',  ( 4.189777606611760026E-14, 1.552251375055020818E-32, 12.00000000000000000 ) ) ;
#145 = AXIS2_PLACEMENT_3D ( 'NONE', #144, #139, #101 ) ;
#146 = PERSON_AND_ORGANIZATION_ROLE ( 'creator' ) ;
#147 = CARTESIAN_POINT ( 'NONE',  ( 2.793185071074506684E-13, 1.599999999999991207, 80.00000000000000000 ) ) ;
#148 =( LENGTH_UNIT ( ) NAMED_UNIT ( * ) SI_UNIT ( .MILLI., .METRE. ) );
#149 =( NAMED_UNIT ( * ) PLANE_ANGLE_UNIT ( ) SI_UNIT ( $, .RADIAN. ) );
#150 = EDGE_LOOP ( 'NONE', ( #156 ) ) ;
#151 = EDGE_LOOP ( 'NONE', ( #37 ) ) ;
#152 = AXIS2_PLACEMENT_3D ( 'NONE', #238, #219, #11 ) ;
#153 = ADVANCED_FACE ( 'NONE', ( #7, #120 ), #241, .T. ) ;
#154 = APPROVAL_ROLE ( '' ) ;
#155 = ORGANIZATION ( 'UNSPECIFIED', 'UNSPECIFIED', '' ) ;
#156 = ORIENTED_EDGE ( 'NONE', *, *, #99, .F. ) ;
#157 = PLANE ( 'NONE',  #131 ) ;
#158 = EDGE_LOOP ( 'NONE', ( #73 ) ) ;
#159 = LOCAL_TIME ( 13, 55, 56.00000000000000000, #32 ) ;
#160 = FACE_OUTER_BOUND ( 'NONE', #150, .T. ) ;
#161 = CIRCLE ( 'NONE', #152, 2.000000000000000888 ) ;
#162 = ADVANCED_FACE ( 'NONE', ( #84 ), #24, .T. ) ;
#163 = CYLINDRICAL_SURFACE ( 'NONE', #74, 1.999999999999996669 ) ;
#164 = CARTESIAN_POINT ( 'NONE',  ( 0.0000000000000000000, 0.0000000000000000000, 0.0000000000000000000 ) ) ;
#165 = DATE_AND_TIME ( #13, #108 ) ;
#166 = CC_DESIGN_DATE_AND_TIME_ASSIGNMENT ( #128, #112, ( #173 ) ) ;
#167 = PERSON_AND_ORGANIZATION ( #40, #155 ) ;
#168 = CARTESIAN_POINT ( 'NONE',  ( 0.0000000000000000000, 0.0000000000000000000, 0.0000000000000000000 ) ) ;
#169 = CARTESIAN_POINT ( 'NONE',  ( 4.189777606611760026E-14, 2.069999999999998508, 12.00000000000000000 ) ) ;
#170 = EDGE_LOOP ( 'NONE', ( #54 ) ) ;
#171 = EDGE_CURVE ( 'NONE', #213, #213, #201, .T. ) ;
#172 = LOCAL_TIME ( 13, 55, 56.00000000000000000, #242 ) ;
#173 = PRODUCT_DEFINITION ( 'UNKNOWN', '', #237, #38 ) ;
#174 = DIRECTION ( 'NONE',  ( 0.0000000000000000000, 1.000000000000000000, 0.0000000000000000000 ) ) ;
#175 =( GEOMETRIC_REPRESENTATION_CONTEXT ( 3 ) GLOBAL_UNCERTAINTY_ASSIGNED_CONTEXT ( ( #218 ) ) GLOBAL_UNIT_ASSIGNED_CONTEXT ( ( #148, #149, #89 ) ) REPRESENTATION_CONTEXT ( 'NONE', 'WORKASPACE' ) );
#176 = APPROVAL_PERSON_ORGANIZATION ( #185, #49, #186 ) ;
#177 = PLANE ( 'NONE',  #145 ) ;
#178 = CARTESIAN_POINT ( 'NONE',  ( 4.189777606611760026E-14, -1.469576158976823947E-15, 12.00000000000000000 ) ) ;
#179 = CARTESIAN_POINT ( 'NONE',  ( 4.189777606611760026E-14, -1.469576158976823947E-15, 12.00000000000000000 ) ) ;
#180 = APPROVAL ( #67, 'UNSPECIFIED' ) ;
#181 = APPROVAL_PERSON_ORGANIZATION ( #17, #110, #134 ) ;
#182 = DIRECTION ( 'NONE',  ( 0.0000000000000000000, 1.000000000000000000, 0.0000000000000000000 ) ) ;
#183 = AXIS2_PLACEMENT_3D ( 'NONE', #178, #225, #221 ) ;
#184 = CARTESIAN_POINT ( 'NONE',  ( 2.779219145719134403E-13, 1.999999999999991340, 79.60000000000000853 ) ) ;
#185 = PERSON_AND_ORGANIZATION ( #40, #155 ) ;
#186 = APPROVAL_ROLE ( '' ) ;
#187 = AXIS2_PLACEMENT_3D ( 'NONE', #25, #42, #104 ) ;
#188 = VERTEX_POINT ( 'NONE', #66 ) ;
#189 = CARTESIAN_POINT ( 'NONE',  ( 4.232109568119648873E-14, 1.999999999999990452, 12.12124355652983532 ) ) ;
#190 = ADVANCED_FACE ( 'NONE', ( #43 ), #124, .F. ) ;
#191 = APPROVAL_PERSON_ORGANIZATION ( #167, #180, #154 ) ;
#192 = ORIENTED_EDGE ( 'NONE', *, *, #171, .F. ) ;
#193 = ORIENTED_EDGE ( 'NONE', *, *, #35, .F. ) ;
#194 = ADVANCED_FACE ( 'NONE', ( #239, #223 ), #163, .T. ) ;
#195 = PERSON_AND_ORGANIZATION ( #40, #155 ) ;
#196 = ORIENTED_EDGE ( 'NONE', *, *, #123, .T. ) ;
#197 = CALENDAR_DATE ( 2021, 2, 12 ) ;
#198 = EDGE_LOOP ( 'NONE', ( #3 ) ) ;
#199 = SECURITY_CLASSIFICATION ( '', '', #200 ) ;
#200 = SECURITY_CLASSIFICATION_LEVEL ( 'unclassified' ) ;
#201 = CIRCLE ( 'NONE', #183, 2.069999999999999840 ) ;
#202 = DIRECTION ( 'NONE',  ( 4.652004696587526566E-31, 1.000000000000000000, 1.309422913629836372E-16 ) ) ;
#203 = CARTESIAN_POINT ( 'NONE',  ( 1.396592535537252750E-15, -4.898587196589410610E-17, 0.3999999999999998002 ) ) ;
#204 = DIRECTION ( 'NONE',  ( -4.275831445896958607E-31, -1.000000000000000000, -1.224646799147353207E-16 ) ) ;
#205 = AXIS2_PLACEMENT_3D ( 'NONE', #81, #10, #174 ) ;
#206 = CC_DESIGN_PERSON_AND_ORGANIZATION_ASSIGNMENT ( #1, #146, ( #173 ) ) ;
#207 = FACE_OUTER_BOUND ( 'NONE', #116, .T. ) ;
#208 = EDGE_CURVE ( 'NONE', #212, #212, #217, .T. ) ;
#209 = CARTESIAN_POINT ( 'NONE',  ( 4.189777606611760026E-14, 1.552251375055020818E-32, 12.00000000000000000 ) ) ;
#210 = MECHANICAL_CONTEXT ( 'NONE', #106, 'mechanical' ) ;
#211 = DIRECTION ( 'NONE',  ( -3.491481338843133355E-15, 1.224646799147353207E-16, -1.000000000000000000 ) ) ;
#212 = VERTEX_POINT ( 'NONE', #147 ) ;
#213 = VERTEX_POINT ( 'NONE', #169 ) ;
#214 = CC_DESIGN_PERSON_AND_ORGANIZATION_ASSIGNMENT ( #56, #215, ( #199 ) ) ;
#215 = PERSON_AND_ORGANIZATION_ROLE ( 'classification_officer' ) ;
#216 = ORIENTED_EDGE ( 'NONE', *, *, #99, .T. ) ;
#217 = CIRCLE ( 'NONE', #111, 1.600000000000000977 ) ;
#218 = UNCERTAINTY_MEASURE_WITH_UNIT (LENGTH_MEASURE( 1.000000000000000082E-05 ), #148, 'distance_accuracy_value', 'NONE');
#219 = DIRECTION ( 'NONE',  ( -3.491481338843133355E-15, 1.224646799147353207E-16, -1.000000000000000000 ) ) ;
#220 = PRODUCT_DEFINITION_SHAPE ( 'NONE', 'NONE',  #173 ) ;
#221 = DIRECTION ( 'NONE',  ( 0.0000000000000000000, 1.000000000000000000, 0.0000000000000000000 ) ) ;
#222 = ADVANCED_FACE ( 'NONE', ( #207, #160 ), #61, .T. ) ;
#223 = FACE_OUTER_BOUND ( 'NONE', #151, .T. ) ;
#224 = AXIS2_PLACEMENT_3D ( 'NONE', #46, #26, #235 ) ;
#225 = DIRECTION ( 'NONE',  ( -3.491481338843133355E-15, 1.224646799147353207E-16, -1.000000000000000000 ) ) ;
#226 = DIRECTION ( 'NONE',  ( -3.491481338843133355E-15, 1.224646799147353207E-16, -1.000000000000000000 ) ) ;
#227 = CC_DESIGN_SECURITY_CLASSIFICATION ( #199, ( #237 ) ) ;
#228 = CC_DESIGN_DATE_AND_TIME_ASSIGNMENT ( #55, #77, ( #199 ) ) ;
#229 = CIRCLE ( 'NONE', #187, 1.999999999999991784 ) ;
#230 = EDGE_LOOP ( 'NONE', ( #78 ) ) ;
#231 = EDGE_LOOP ( 'NONE', ( #76 ) ) ;
#232 = PERSON_AND_ORGANIZATION_ROLE ( 'design_supplier' ) ;
#233 = EDGE_LOOP ( 'NONE', ( #193 ) ) ;
#234 = DIRECTION ( 'NONE',  ( -3.491481338843133355E-15, 1.224646799147353207E-16, -1.000000000000000000 ) ) ;
#235 = DIRECTION ( 'NONE',  ( -4.275831445896958607E-31, -1.000000000000000000, -1.224646799147353207E-16 ) ) ;
#236 = DIRECTION ( 'NONE',  ( 4.275831445896958607E-31, 1.000000000000000000, 1.224646799147353207E-16 ) ) ;
#237 = PRODUCT_DEFINITION_FORMATION_WITH_SPECIFIED_SOURCE ( 'ANY', '', #140, .NOT_KNOWN. ) ;
#238 = CARTESIAN_POINT ( 'NONE',  ( 2.779219145719134403E-13, -9.748188521212932624E-15, 79.60000000000000853 ) ) ;
#239 = FACE_OUTER_BOUND ( 'NONE', #231, .T. ) ;
#240 = CARTESIAN_POINT ( 'NONE',  ( 4.189777606611760026E-14, 2.069999999999998508, 12.00000000000000000 ) ) ;
#241 = CONICAL_SURFACE ( 'NONE', #205, 1.600000000000000977, 0.7853981633974512766 ) ;
#242 = COORDINATED_UNIVERSAL_TIME_OFFSET ( 1, 0, .AHEAD. ) ;
#243 = ADVANCED_FACE ( 'NONE', ( #88, #109 ), #138, .T. ) ;
ENDSEC;
END-ISO-10303-21;
