ISO-10303-21;
HEADER;
FILE_DESCRIPTION (( 'STEP AP203' ),
    '1' );
FILE_NAME ('321639.step',
    '2021-12-02T12:55:55',
    ( '' ),
    ( '' ),
    'SwSTEP 2.0',
    'SolidWorks 2019',
    '' );
FILE_SCHEMA (( 'CONFIG_CONTROL_DESIGN' ));
ENDSEC;

DATA;
#1 = LOCAL_TIME ( 13, 55, 55.00000000000000000, #138 ) ;
#2 = MANIFOLD_SOLID_BREP ( 'Corps-Déplacer/Copier1[2]', #41 ) ;
#3 = PERSON_AND_ORGANIZATION_ROLE ( 'design_supplier' ) ;
#4 = CC_DESIGN_PERSON_AND_ORGANIZATION_ASSIGNMENT ( #234, #72, ( #45 ) ) ;
#5 = PERSON_AND_ORGANIZATION_ROLE ( 'creator' ) ;
#6 = FACE_OUTER_BOUND ( 'NONE', #98, .T. ) ;
#7 = PERSON_AND_ORGANIZATION ( #67, #33 ) ;
#8 = CARTESIAN_POINT ( 'NONE',  ( 4.189777606611760026E-14, -1.469576158976823947E-15, 12.00000000000000000 ) ) ;
#9 = CC_DESIGN_APPROVAL ( #134, ( #36 ) ) ;
#10 = FACE_BOUND ( 'NONE', #147, .T. ) ;
#11 = DIRECTION ( 'NONE',  ( -3.491481338843133355E-15, 1.224646799147353207E-16, -1.000000000000000000 ) ) ;
#12 = PERSON_AND_ORGANIZATION ( #67, #33 ) ;
#13 = CARTESIAN_POINT ( 'NONE',  ( 4.229085856583372000E-14, -1.483363637080249325E-15, 12.11258330249199133 ) ) ;
#14 =( LENGTH_UNIT ( ) NAMED_UNIT ( * ) SI_UNIT ( .MILLI., .METRE. ) );
#15 = AXIS2_PLACEMENT_3D ( 'NONE', #8, #125, #48 ) ;
#16 = CARTESIAN_POINT ( 'NONE',  ( 4.189777606611760026E-14, -1.469576158976823947E-15, 12.00000000000000000 ) ) ;
#17 = DIRECTION ( 'NONE',  ( -3.491481338843133355E-15, 1.224646799147353207E-16, -1.000000000000000000 ) ) ;
#18 = CC_DESIGN_PERSON_AND_ORGANIZATION_ASSIGNMENT ( #12, #205, ( #178 ) ) ;
#19 = APPROVAL_PERSON_ORGANIZATION ( #127, #131, #141 ) ;
#20 = CARTESIAN_POINT ( 'NONE',  ( 4.189777606611760026E-14, 2.064999999999998614, 12.00000000000000000 ) ) ;
#21 = AXIS2_PLACEMENT_3D ( 'NONE', #118, #191, #91 ) ;
#22 = DIRECTION ( 'NONE',  ( -3.491481338843133355E-15, 1.224646799147353207E-16, -1.000000000000000000 ) ) ;
#23 = ADVANCED_FACE ( 'NONE', ( #26 ), #95, .T. ) ;
#24 = ADVANCED_BREP_SHAPE_REPRESENTATION ( '321639', ( #161, #2, #179 ), #103 ) ;
#25 = ORIENTED_EDGE ( 'NONE', *, *, #157, .T. ) ;
#26 = FACE_OUTER_BOUND ( 'NONE', #153, .T. ) ;
#27 = EDGE_CURVE ( 'NONE', #56, #56, #239, .T. ) ;
#28 = SHAPE_DEFINITION_REPRESENTATION ( #120, #24 ) ;
#29 = FACE_BOUND ( 'NONE', #193, .T. ) ;
#30 = EDGE_LOOP ( 'NONE', ( #94 ) ) ;
#31 = DIRECTION ( 'NONE',  ( 0.0000000000000000000, 1.000000000000000000, 0.0000000000000000000 ) ) ;
#32 = DIRECTION ( 'NONE',  ( 0.0000000000000000000, 1.000000000000000000, 0.0000000000000000000 ) ) ;
#33 = ORGANIZATION ( 'UNSPECIFIED', 'UNSPECIFIED', '' ) ;
#34 = CARTESIAN_POINT ( 'NONE',  ( 4.229085856583372000E-14, 1.999999999999990452, 12.11258330249199133 ) ) ;
#35 = CARTESIAN_POINT ( 'NONE',  ( 0.0000000000000000000, 0.0000000000000000000, 0.0000000000000000000 ) ) ;
#36 = SECURITY_CLASSIFICATION ( '', '', #214 ) ;
#37 = VERTEX_POINT ( 'NONE', #142 ) ;
#38 = DIRECTION ( 'NONE',  ( 4.663268630477568628E-31, 1.000000000000000000, 1.312593429159206330E-16 ) ) ;
#39 = CARTESIAN_POINT ( 'NONE',  ( 1.396592535537253342E-15, 2.064999999999999947, 0.3999999999999999667 ) ) ;
#40 = CC_DESIGN_APPROVAL ( #131, ( #217 ) ) ;
#41 = CLOSED_SHELL ( 'NONE', ( #55, #23, #83, #212 ) ) ;
#42 = AXIS2_PLACEMENT_3D ( 'NONE', #13, #47, #51 ) ;
#43 = ORIENTED_EDGE ( 'NONE', *, *, #151, .F. ) ;
#44 = DIRECTION ( 'NONE',  ( -4.275831445896958607E-31, -1.000000000000000000, -1.224646799147353207E-16 ) ) ;
#45 = PRODUCT ( '321639', '321639', '', ( #158 ) ) ;
#46 = AXIS2_PLACEMENT_3D ( 'NONE', #109, #145, #211 ) ;
#47 = DIRECTION ( 'NONE',  ( -3.491481338843133355E-15, 1.224646799147353207E-16, -1.000000000000000000 ) ) ;
#48 = DIRECTION ( 'NONE',  ( 0.0000000000000000000, 1.000000000000000000, 0.0000000000000000000 ) ) ;
#49 = CIRCLE ( 'NONE', #236, 1.600000000000000977 ) ;
#50 = ADVANCED_FACE ( 'NONE', ( #175 ), #155, .F. ) ;
#51 = DIRECTION ( 'NONE',  ( 0.0000000000000000000, 1.000000000000000000, 0.0000000000000000000 ) ) ;
#52 = DATE_TIME_ROLE ( 'creation_date' ) ;
#53 = CALENDAR_DATE ( 2021, 2, 12 ) ;
#54 = CC_DESIGN_APPROVAL ( #112, ( #178 ) ) ;
#55 = ADVANCED_FACE ( 'NONE', ( #6, #232 ), #231, .T. ) ;
#56 = VERTEX_POINT ( 'NONE', #34 ) ;
#57 = DIRECTION ( 'NONE',  ( -3.491481338843133355E-15, 1.224646799147353207E-16, -1.000000000000000000 ) ) ;
#58 = CARTESIAN_POINT ( 'NONE',  ( 4.189777606611760026E-14, 2.064999999999998614, 12.00000000000000000 ) ) ;
#59 = FACE_OUTER_BOUND ( 'NONE', #148, .T. ) ;
#60 = APPROVAL_ROLE ( '' ) ;
#61 = FACE_BOUND ( 'NONE', #97, .T. ) ;
#62 = ORIENTED_EDGE ( 'NONE', *, *, #27, .F. ) ;
#63 = PRODUCT_RELATED_PRODUCT_CATEGORY ( 'detail', '', ( #45 ) ) ;
#64 = EDGE_LOOP ( 'NONE', ( #43 ) ) ;
#65 = DESIGN_CONTEXT ( 'detailed design', #224, 'design' ) ;
#66 = CARTESIAN_POINT ( 'NONE',  ( 2.793185071074506684E-13, -9.797174393178826052E-15, 80.00000000000000000 ) ) ;
#67 = PERSON ( 'UNSPECIFIED', 'UNSPECIFIED', 'UNSPECIFIED', ('UNSPECIFIED'), ('UNSPECIFIED'), ('UNSPECIFIED') ) ;
#68 = DIRECTION ( 'NONE',  ( 4.275831445896958607E-31, 1.000000000000000000, 1.224646799147353207E-16 ) ) ;
#69 = DIRECTION ( 'NONE',  ( 3.491481338843133355E-15, -1.224646799147353207E-16, 1.000000000000000000 ) ) ;
#70 = CARTESIAN_POINT ( 'NONE',  ( 2.779219145719134403E-13, 1.999999999999991340, 79.60000000000000853 ) ) ;
#71 = DIRECTION ( 'NONE',  ( 4.275831445896958607E-31, 1.000000000000000000, 1.224646799147353207E-16 ) ) ;
#72 = PERSON_AND_ORGANIZATION_ROLE ( 'design_owner' ) ;
#73 = VERTEX_POINT ( 'NONE', #39 ) ;
#74 = VERTEX_POINT ( 'NONE', #58 ) ;
#75 = FACE_OUTER_BOUND ( 'NONE', #167, .T. ) ;
#76 = APPROVAL_STATUS ( 'not_yet_approved' ) ;
#77 = CIRCLE ( 'NONE', #218, 1.664999999999998925 ) ;
#78 = ORIENTED_EDGE ( 'NONE', *, *, #27, .T. ) ;
#79 = ORIENTED_EDGE ( 'NONE', *, *, #223, .T. ) ;
#80 = EDGE_LOOP ( 'NONE', ( #114 ) ) ;
#81 = CALENDAR_DATE ( 2021, 2, 12 ) ;
#82 = FACE_OUTER_BOUND ( 'NONE', #215, .T. ) ;
#83 = ADVANCED_FACE ( 'NONE', ( #82 ), #124, .T. ) ;
#84 = FACE_OUTER_BOUND ( 'NONE', #243, .T. ) ;
#85 = CARTESIAN_POINT ( 'NONE',  ( 2.793185071074506684E-13, 1.599999999999991207, 80.00000000000000000 ) ) ;
#86 = AXIS2_PLACEMENT_3D ( 'NONE', #129, #22, #143 ) ;
#87 = AXIS2_PLACEMENT_3D ( 'NONE', #177, #11, #31 ) ;
#88 =( NAMED_UNIT ( * ) SI_UNIT ( $, .STERADIAN. ) SOLID_ANGLE_UNIT ( ) );
#89 = VERTEX_POINT ( 'NONE', #85 ) ;
#90 = CARTESIAN_POINT ( 'NONE',  ( 1.396592535537252356E-15, -4.898587196589408761E-17, 0.3999999999999996891 ) ) ;
#91 = DIRECTION ( 'NONE',  ( 0.0000000000000000000, 1.000000000000000000, 0.0000000000000000000 ) ) ;
#92 = ADVANCED_FACE ( 'NONE', ( #100, #10 ), #159, .T. ) ;
#93 = APPROVAL_PERSON_ORGANIZATION ( #186, #134, #101 ) ;
#94 = ORIENTED_EDGE ( 'NONE', *, *, #226, .T. ) ;
#95 = PLANE ( 'NONE',  #113 ) ;
#96 = PERSON_AND_ORGANIZATION_ROLE ( 'classification_officer' ) ;
#97 = EDGE_LOOP ( 'NONE', ( #78 ) ) ;
#98 = EDGE_LOOP ( 'NONE', ( #79 ) ) ;
#99 = CC_DESIGN_PERSON_AND_ORGANIZATION_ASSIGNMENT ( #190, #96, ( #36 ) ) ;
#100 = FACE_OUTER_BOUND ( 'NONE', #149, .T. ) ;
#101 = APPROVAL_ROLE ( '' ) ;
#102 = FACE_OUTER_BOUND ( 'NONE', #64, .T. ) ;
#103 =( GEOMETRIC_REPRESENTATION_CONTEXT ( 3 ) GLOBAL_UNCERTAINTY_ASSIGNED_CONTEXT ( ( #105 ) ) GLOBAL_UNIT_ASSIGNED_CONTEXT ( ( #14, #144, #88 ) ) REPRESENTATION_CONTEXT ( 'NONE', 'WORKASPACE' ) );
#104 = CC_DESIGN_PERSON_AND_ORGANIZATION_ASSIGNMENT ( #210, #5, ( #217 ) ) ;
#105 = UNCERTAINTY_MEASURE_WITH_UNIT (LENGTH_MEASURE( 1.000000000000000082E-05 ), #14, 'distance_accuracy_value', 'NONE');
#106 = CIRCLE ( 'NONE', #21, 2.064999999999999947 ) ;
#107 = CALENDAR_DATE ( 2021, 2, 12 ) ;
#108 = DATE_AND_TIME ( #219, #233 ) ;
#109 = CARTESIAN_POINT ( 'NONE',  ( 0.0000000000000000000, 0.0000000000000000000, 0.0000000000000000000 ) ) ;
#110 = LOCAL_TIME ( 13, 55, 55.00000000000000000, #221 ) ;
#111 = CIRCLE ( 'NONE', #204, 2.064999999999999947 ) ;
#112 = APPROVAL ( #208, 'UNSPECIFIED' ) ;
#113 = AXIS2_PLACEMENT_3D ( 'NONE', #154, #197, #122 ) ;
#114 = ORIENTED_EDGE ( 'NONE', *, *, #187, .T. ) ;
#115 = COORDINATED_UNIVERSAL_TIME_OFFSET ( 1, 0, .AHEAD. ) ;
#116 = ORIENTED_EDGE ( 'NONE', *, *, #223, .F. ) ;
#117 = CC_DESIGN_DATE_AND_TIME_ASSIGNMENT ( #133, #132, ( #36 ) ) ;
#118 = CARTESIAN_POINT ( 'NONE',  ( 4.189777606611760026E-14, -1.469576158976823947E-15, 12.00000000000000000 ) ) ;
#119 = AXIS2_PLACEMENT_3D ( 'NONE', #90, #57, #38 ) ;
#120 = PRODUCT_DEFINITION_SHAPE ( 'NONE', 'NONE',  #178 ) ;
#121 = CONICAL_SURFACE ( 'NONE', #241, 1.664999999999998925, 0.7853981633974497223 ) ;
#122 = DIRECTION ( 'NONE',  ( -4.275831445896958607E-31, -1.000000000000000000, -1.224646799147353207E-16 ) ) ;
#123 = CC_DESIGN_PERSON_AND_ORGANIZATION_ASSIGNMENT ( #7, #3, ( #217 ) ) ;
#124 = PLANE ( 'NONE',  #198 ) ;
#125 = DIRECTION ( 'NONE',  ( -3.491481338843133355E-15, 1.224646799147353207E-16, -1.000000000000000000 ) ) ;
#126 = CARTESIAN_POINT ( 'NONE',  ( 0.0000000000000000000, 0.0000000000000000000, 0.0000000000000000000 ) ) ;
#127 = PERSON_AND_ORGANIZATION ( #67, #33 ) ;
#128 = DATE_AND_TIME ( #53, #110 ) ;
#129 = CARTESIAN_POINT ( 'NONE',  ( 2.793185071074506684E-13, 1.199807826129472128E-32, 80.00000000000000000 ) ) ;
#130 = DIRECTION ( 'NONE',  ( -3.491481338843133355E-15, 1.224646799147353207E-16, -1.000000000000000000 ) ) ;
#131 = APPROVAL ( #201, 'UNSPECIFIED' ) ;
#132 = DATE_TIME_ROLE ( 'classification_date' ) ;
#133 = DATE_AND_TIME ( #172, #156 ) ;
#134 = APPROVAL ( #76, 'UNSPECIFIED' ) ;
#135 = ORIENTED_EDGE ( 'NONE', *, *, #226, .F. ) ;
#136 = DATE_AND_TIME ( #81, #196 ) ;
#137 = CARTESIAN_POINT ( 'NONE',  ( 4.189777606611760026E-14, 1.548501975598366146E-32, 12.00000000000000000 ) ) ;
#138 = COORDINATED_UNIVERSAL_TIME_OFFSET ( 1, 0, .AHEAD. ) ;
#139 = ADVANCED_FACE ( 'NONE', ( #102 ), #174, .F. ) ;
#140 = CARTESIAN_POINT ( 'NONE',  ( -3.559629678709215864E-31, 1.248550019065995720E-32, -1.019518460290170951E-16 ) ) ;
#141 = APPROVAL_ROLE ( '' ) ;
#142 = CARTESIAN_POINT ( 'NONE',  ( 0.0000000000000000000, 1.664999999999998925, 0.0000000000000000000 ) ) ;
#143 = DIRECTION ( 'NONE',  ( 4.275831445896958607E-31, 1.000000000000000000, 1.224646799147353207E-16 ) ) ;
#144 =( NAMED_UNIT ( * ) PLANE_ANGLE_UNIT ( ) SI_UNIT ( $, .RADIAN. ) );
#145 = DIRECTION ( 'NONE',  ( -3.491481338843133355E-15, 1.224646799147353207E-16, -1.000000000000000000 ) ) ;
#146 = CIRCLE ( 'NONE', #87, 2.000000000000000888 ) ;
#147 = EDGE_LOOP ( 'NONE', ( #166 ) ) ;
#148 = EDGE_LOOP ( 'NONE', ( #62 ) ) ;
#149 = EDGE_LOOP ( 'NONE', ( #242 ) ) ;
#150 = CC_DESIGN_SECURITY_CLASSIFICATION ( #36, ( #217 ) ) ;
#151 = EDGE_CURVE ( 'NONE', #89, #89, #49, .T. ) ;
#152 = AXIS2_PLACEMENT_3D ( 'NONE', #66, #195, #32 ) ;
#153 = EDGE_LOOP ( 'NONE', ( #116 ) ) ;
#154 = CARTESIAN_POINT ( 'NONE',  ( 4.189777606611760026E-14, 1.548501975598366146E-32, 12.00000000000000000 ) ) ;
#155 = PLANE ( 'NONE',  #176 ) ;
#156 = LOCAL_TIME ( 13, 55, 55.00000000000000000, #230 ) ;
#157 = EDGE_CURVE ( 'NONE', #73, #73, #225, .T. ) ;
#158 = MECHANICAL_CONTEXT ( 'NONE', #188, 'mechanical' ) ;
#159 = CONICAL_SURFACE ( 'NONE', #152, 1.600000000000000977, 0.7853981633974512766 ) ;
#160 = APPLICATION_PROTOCOL_DEFINITION ( 'international standard', 'config_control_design', 1994, #224 ) ;
#161 = MANIFOLD_SOLID_BREP ( 'Corps-Déplacer/Copier1[1]', #182 ) ;
#162 = ADVANCED_FACE ( 'NONE', ( #59, #164 ), #207, .T. ) ;
#163 = DIRECTION ( 'NONE',  ( 0.0000000000000000000, 0.0000000000000000000, 1.000000000000000000 ) ) ;
#164 = FACE_OUTER_BOUND ( 'NONE', #80, .T. ) ;
#165 = DIRECTION ( 'NONE',  ( 0.0000000000000000000, 1.000000000000000000, 0.0000000000000000000 ) ) ;
#166 = ORIENTED_EDGE ( 'NONE', *, *, #151, .T. ) ;
#167 = EDGE_LOOP ( 'NONE', ( #135 ) ) ;
#168 = CARTESIAN_POINT ( 'NONE',  ( -7.119259357418431727E-31, 2.497100038131991439E-32, -2.039036920580341903E-16 ) ) ;
#169 = AXIS2_PLACEMENT_3D ( 'NONE', #126, #200, #71 ) ;
#170 = EDGE_LOOP ( 'NONE', ( #189 ) ) ;
#171 = APPROVAL_DATE_TIME ( #136, #134 ) ;
#172 = CALENDAR_DATE ( 2021, 2, 12 ) ;
#173 = CARTESIAN_POINT ( 'NONE',  ( -7.119259357418431727E-31, 2.497100038131991439E-32, -2.039036920580341903E-16 ) ) ;
#174 = PLANE ( 'NONE',  #86 ) ;
#175 = FACE_OUTER_BOUND ( 'NONE', #30, .T. ) ;
#176 = AXIS2_PLACEMENT_3D ( 'NONE', #137, #69, #235 ) ;
#177 = CARTESIAN_POINT ( 'NONE',  ( 2.779219145719134403E-13, -9.748188521212932624E-15, 79.60000000000000853 ) ) ;
#178 = PRODUCT_DEFINITION ( 'UNKNOWN', '', #217, #65 ) ;
#179 = AXIS2_PLACEMENT_3D ( 'NONE', #35, #163, #222 ) ;
#180 = DATE_AND_TIME ( #107, #1 ) ;
#181 = CARTESIAN_POINT ( 'NONE',  ( 2.793185071074506684E-13, -9.797174393178826052E-15, 80.00000000000000000 ) ) ;
#182 = CLOSED_SHELL ( 'NONE', ( #50, #183, #162, #92, #139 ) ) ;
#183 = ADVANCED_FACE ( 'NONE', ( #61, #75 ), #192, .T. ) ;
#184 = DIRECTION ( 'NONE',  ( 0.0000000000000000000, 1.000000000000000000, 0.0000000000000000000 ) ) ;
#185 = VERTEX_POINT ( 'NONE', #20 ) ;
#186 = PERSON_AND_ORGANIZATION ( #67, #33 ) ;
#187 = EDGE_CURVE ( 'NONE', #237, #237, #146, .T. ) ;
#188 = APPLICATION_CONTEXT ( 'configuration controlled 3d designs of mechanical parts and assemblies' ) ;
#189 = ORIENTED_EDGE ( 'NONE', *, *, #157, .F. ) ;
#190 = PERSON_AND_ORGANIZATION ( #67, #33 ) ;
#191 = DIRECTION ( 'NONE',  ( -3.491481338843133355E-15, 1.224646799147353207E-16, -1.000000000000000000 ) ) ;
#192 = CONICAL_SURFACE ( 'NONE', #15, 2.064999999999999947, 0.5235987755982998149 ) ;
#193 = EDGE_LOOP ( 'NONE', ( #229 ) ) ;
#194 = APPROVAL_DATE_TIME ( #128, #131 ) ;
#195 = DIRECTION ( 'NONE',  ( -3.491481338843133355E-15, 1.224646799147353207E-16, -1.000000000000000000 ) ) ;
#196 = LOCAL_TIME ( 13, 55, 55.00000000000000000, #115 ) ;
#197 = DIRECTION ( 'NONE',  ( 3.491481338843133355E-15, -1.224646799147353207E-16, 1.000000000000000000 ) ) ;
#198 = AXIS2_PLACEMENT_3D ( 'NONE', #140, #220, #202 ) ;
#199 = COORDINATED_UNIVERSAL_TIME_OFFSET ( 1, 0, .AHEAD. ) ;
#200 = DIRECTION ( 'NONE',  ( -3.491481338843133355E-15, 1.224646799147353207E-16, -1.000000000000000000 ) ) ;
#201 = APPROVAL_STATUS ( 'not_yet_approved' ) ;
#202 = DIRECTION ( 'NONE',  ( 4.275831445896958607E-31, 1.000000000000000000, 1.224646799147353207E-16 ) ) ;
#203 = EDGE_CURVE ( 'NONE', #37, #37, #77, .T. ) ;
#204 = AXIS2_PLACEMENT_3D ( 'NONE', #16, #17, #184 ) ;
#205 = PERSON_AND_ORGANIZATION_ROLE ( 'creator' ) ;
#206 = PERSON_AND_ORGANIZATION ( #67, #33 ) ;
#207 = CYLINDRICAL_SURFACE ( 'NONE', #46, 1.999999999999996669 ) ;
#208 = APPROVAL_STATUS ( 'not_yet_approved' ) ;
#209 = APPROVAL_PERSON_ORGANIZATION ( #206, #112, #60 ) ;
#210 = PERSON_AND_ORGANIZATION ( #67, #33 ) ;
#211 = DIRECTION ( 'NONE',  ( 4.275831445896958607E-31, 1.000000000000000000, 1.224646799147353207E-16 ) ) ;
#212 = ADVANCED_FACE ( 'NONE', ( #84, #29 ), #121, .T. ) ;
#213 = CC_DESIGN_DATE_AND_TIME_ASSIGNMENT ( #180, #52, ( #178 ) ) ;
#214 = SECURITY_CLASSIFICATION_LEVEL ( 'unclassified' ) ;
#215 = EDGE_LOOP ( 'NONE', ( #227 ) ) ;
#216 = DIRECTION ( 'NONE',  ( 3.491481338843133355E-15, -1.224646799147353207E-16, 1.000000000000000000 ) ) ;
#217 = PRODUCT_DEFINITION_FORMATION_WITH_SPECIFIED_SOURCE ( 'ANY', '', #45, .NOT_KNOWN. ) ;
#218 = AXIS2_PLACEMENT_3D ( 'NONE', #173, #228, #68 ) ;
#219 = CALENDAR_DATE ( 2021, 2, 12 ) ;
#220 = DIRECTION ( 'NONE',  ( -3.491481338843133355E-15, 1.224646799147353207E-16, -1.000000000000000000 ) ) ;
#221 = COORDINATED_UNIVERSAL_TIME_OFFSET ( 1, 0, .AHEAD. ) ;
#222 = DIRECTION ( 'NONE',  ( 1.000000000000000000, 0.0000000000000000000, 0.0000000000000000000 ) ) ;
#223 = EDGE_CURVE ( 'NONE', #185, #185, #106, .T. ) ;
#224 = APPLICATION_CONTEXT ( 'configuration controlled 3d designs of mechanical parts and assemblies' ) ;
#225 = CIRCLE ( 'NONE', #119, 2.064999999999999947 ) ;
#226 = EDGE_CURVE ( 'NONE', #74, #74, #111, .T. ) ;
#227 = ORIENTED_EDGE ( 'NONE', *, *, #203, .T. ) ;
#228 = DIRECTION ( 'NONE',  ( -3.491481338843133355E-15, 1.224646799147353207E-16, -1.000000000000000000 ) ) ;
#229 = ORIENTED_EDGE ( 'NONE', *, *, #203, .F. ) ;
#230 = COORDINATED_UNIVERSAL_TIME_OFFSET ( 1, 0, .AHEAD. ) ;
#231 = CYLINDRICAL_SURFACE ( 'NONE', #169, 2.064999999999999947 ) ;
#232 = FACE_OUTER_BOUND ( 'NONE', #170, .T. ) ;
#233 = LOCAL_TIME ( 13, 55, 55.00000000000000000, #199 ) ;
#234 = PERSON_AND_ORGANIZATION ( #67, #33 ) ;
#235 = DIRECTION ( 'NONE',  ( -4.275831445896958607E-31, -1.000000000000000000, -1.224646799147353207E-16 ) ) ;
#236 = AXIS2_PLACEMENT_3D ( 'NONE', #181, #130, #165 ) ;
#237 = VERTEX_POINT ( 'NONE', #70 ) ;
#238 = APPLICATION_PROTOCOL_DEFINITION ( 'international standard', 'config_control_design', 1994, #188 ) ;
#239 = CIRCLE ( 'NONE', #42, 1.999999999999991784 ) ;
#240 = APPROVAL_DATE_TIME ( #108, #112 ) ;
#241 = AXIS2_PLACEMENT_3D ( 'NONE', #168, #216, #44 ) ;
#242 = ORIENTED_EDGE ( 'NONE', *, *, #187, .F. ) ;
#243 = EDGE_LOOP ( 'NONE', ( #25 ) ) ;
ENDSEC;
END-ISO-10303-21;
