ISO-10303-21;
HEADER;
FILE_DESCRIPTION (( 'STEP AP203' ),
    '1' );
FILE_NAME ('321637.step',
    '2021-12-02T12:55:54',
    ( '' ),
    ( '' ),
    'SwSTEP 2.0',
    'SolidWorks 2019',
    '' );
FILE_SCHEMA (( 'CONFIG_CONTROL_DESIGN' ));
ENDSEC;

DATA;
#1 = DIRECTION ( 'NONE',  ( -3.491481338843133355E-15, 1.224646799147353207E-16, -1.000000000000000000 ) ) ;
#2 = AXIS2_PLACEMENT_3D ( 'NONE', #67, #158, #139 ) ;
#3 = APPROVAL_ROLE ( '' ) ;
#4 = COORDINATED_UNIVERSAL_TIME_OFFSET ( 1, 0, .AHEAD. ) ;
#5 = AXIS2_PLACEMENT_3D ( 'NONE', #92, #144, #201 ) ;
#6 = PERSON_AND_ORGANIZATION ( #164, #81 ) ;
#7 = ORIENTED_EDGE ( 'NONE', *, *, #62, .F. ) ;
#8 = ORIENTED_EDGE ( 'NONE', *, *, #62, .T. ) ;
#9 = CC_DESIGN_PERSON_AND_ORGANIZATION_ASSIGNMENT ( #38, #166, ( #21 ) ) ;
#10 = CIRCLE ( 'NONE', #72, 1.654999999999998694 ) ;
#11 = FACE_OUTER_BOUND ( 'NONE', #114, .T. ) ;
#12 = DIRECTION ( 'NONE',  ( -4.275831445896958607E-31, -1.000000000000000000, -1.224646799147353207E-16 ) ) ;
#13 = CARTESIAN_POINT ( 'NONE',  ( 4.189777606611760026E-14, -1.469576158976823947E-15, 12.00000000000000000 ) ) ;
#14 = FACE_OUTER_BOUND ( 'NONE', #60, .T. ) ;
#15 = VERTEX_POINT ( 'NONE', #57 ) ;
#16 = EDGE_CURVE ( 'NONE', #181, #181, #44, .T. ) ;
#17 = FACE_BOUND ( 'NONE', #116, .T. ) ;
#18 = APPROVAL_STATUS ( 'not_yet_approved' ) ;
#19 = APPROVAL_ROLE ( '' ) ;
#20 = CARTESIAN_POINT ( 'NONE',  ( 2.793185071074506684E-13, -9.797174393178826052E-15, 80.00000000000000000 ) ) ;
#21 = PRODUCT_DEFINITION_FORMATION_WITH_SPECIFIED_SOURCE ( 'ANY', '', #42, .NOT_KNOWN. ) ;
#22 = EDGE_LOOP ( 'NONE', ( #41 ) ) ;
#23 = EDGE_LOOP ( 'NONE', ( #35 ) ) ;
#24 = DIRECTION ( 'NONE',  ( -3.491481338843133355E-15, 1.224646799147353207E-16, -1.000000000000000000 ) ) ;
#25 = FACE_OUTER_BOUND ( 'NONE', #133, .T. ) ;
#26 = FACE_BOUND ( 'NONE', #207, .T. ) ;
#27 = CARTESIAN_POINT ( 'NONE',  ( 1.396592535537253145E-15, -4.898587196589411843E-17, 0.3999999999999999112 ) ) ;
#28 = AXIS2_PLACEMENT_3D ( 'NONE', #103, #198, #197 ) ;
#29 = CARTESIAN_POINT ( 'NONE',  ( 2.779219145719134403E-13, -9.748188521212932624E-15, 79.60000000000000853 ) ) ;
#30 = PERSON_AND_ORGANIZATION_ROLE ( 'design_owner' ) ;
#31 = MECHANICAL_CONTEXT ( 'NONE', #47, 'mechanical' ) ;
#32 = CC_DESIGN_APPROVAL ( #121, ( #196 ) ) ;
#33 = DIRECTION ( 'NONE',  ( -3.491481338843133355E-15, 1.224646799147353207E-16, -1.000000000000000000 ) ) ;
#34 = PERSON_AND_ORGANIZATION ( #164, #81 ) ;
#35 = ORIENTED_EDGE ( 'NONE', *, *, #179, .T. ) ;
#36 = AXIS2_PLACEMENT_3D ( 'NONE', #153, #138, #12 ) ;
#37 = AXIS2_PLACEMENT_3D ( 'NONE', #236, #84, #105 ) ;
#38 = PERSON_AND_ORGANIZATION ( #164, #81 ) ;
#39 = ADVANCED_FACE ( 'NONE', ( #11 ), #122, .F. ) ;
#40 = PRODUCT_RELATED_PRODUCT_CATEGORY ( 'detail', '', ( #42 ) ) ;
#41 = ORIENTED_EDGE ( 'NONE', *, *, #208, .T. ) ;
#42 = PRODUCT ( '321637', '321637', '', ( #31 ) ) ;
#43 = PERSON_AND_ORGANIZATION ( #164, #81 ) ;
#44 = CIRCLE ( 'NONE', #76, 1.600000000000000977 ) ;
#45 = ADVANCED_BREP_SHAPE_REPRESENTATION ( '321637', ( #231, #239, #174 ), #59 ) ;
#46 = DIRECTION ( 'NONE',  ( 0.0000000000000000000, 1.000000000000000000, 0.0000000000000000000 ) ) ;
#47 = APPLICATION_CONTEXT ( 'configuration controlled 3d designs of mechanical parts and assemblies' ) ;
#48 = SHAPE_DEFINITION_REPRESENTATION ( #98, #45 ) ;
#49 = CLOSED_SHELL ( 'NONE', ( #39, #68, #104, #204, #95 ) ) ;
#50 = DIRECTION ( 'NONE',  ( -3.491481338843133355E-15, 1.224646799147353207E-16, -1.000000000000000000 ) ) ;
#51 = APPROVAL_PERSON_ORGANIZATION ( #96, #77, #19 ) ;
#52 = DIRECTION ( 'NONE',  ( 0.0000000000000000000, 1.000000000000000000, 0.0000000000000000000 ) ) ;
#53 =( NAMED_UNIT ( * ) PLANE_ANGLE_UNIT ( ) SI_UNIT ( $, .RADIAN. ) );
#54 = ADVANCED_FACE ( 'NONE', ( #69, #26 ), #193, .T. ) ;
#55 = LOCAL_TIME ( 13, 55, 54.00000000000000000, #148 ) ;
#56 = DIRECTION ( 'NONE',  ( 4.275831445896958607E-31, 1.000000000000000000, 1.224646799147353207E-16 ) ) ;
#57 = CARTESIAN_POINT ( 'NONE',  ( 1.396592535537254131E-15, 2.055000000000000160, 0.4000000000000001887 ) ) ;
#58 = DATE_AND_TIME ( #226, #55 ) ;
#59 =( GEOMETRIC_REPRESENTATION_CONTEXT ( 3 ) GLOBAL_UNCERTAINTY_ASSIGNED_CONTEXT ( ( #129 ) ) GLOBAL_UNIT_ASSIGNED_CONTEXT ( ( #147, #53, #180 ) ) REPRESENTATION_CONTEXT ( 'NONE', 'WORKASPACE' ) );
#60 = EDGE_LOOP ( 'NONE', ( #187 ) ) ;
#61 = CC_DESIGN_PERSON_AND_ORGANIZATION_ASSIGNMENT ( #6, #169, ( #196 ) ) ;
#62 = EDGE_CURVE ( 'NONE', #15, #15, #199, .T. ) ;
#63 = APPROVAL_DATE_TIME ( #227, #77 ) ;
#64 = CALENDAR_DATE ( 2021, 2, 12 ) ;
#65 = CARTESIAN_POINT ( 'NONE',  ( 4.223038433510816992E-14, -1.481242486602799631E-15, 12.09526279441630336 ) ) ;
#66 = FACE_OUTER_BOUND ( 'NONE', #152, .T. ) ;
#67 = CARTESIAN_POINT ( 'NONE',  ( 4.189777606611760026E-14, 1.541003176685056804E-32, 12.00000000000000000 ) ) ;
#68 = ADVANCED_FACE ( 'NONE', ( #140, #66 ), #82, .T. ) ;
#69 = FACE_OUTER_BOUND ( 'NONE', #79, .T. ) ;
#70 = DIRECTION ( 'NONE',  ( 0.0000000000000000000, 1.000000000000000000, 0.0000000000000000000 ) ) ;
#71 = DATE_AND_TIME ( #238, #93 ) ;
#72 = AXIS2_PLACEMENT_3D ( 'NONE', #237, #24, #194 ) ;
#73 = CARTESIAN_POINT ( 'NONE',  ( -8.552847072295026068E-47, 1.654999999999998694, 0.0000000000000000000 ) ) ;
#74 = DIRECTION ( 'NONE',  ( -3.491481338843133355E-15, 1.224646799147353207E-16, -1.000000000000000000 ) ) ;
#75 = DIRECTION ( 'NONE',  ( 1.000000000000000000, 0.0000000000000000000, 0.0000000000000000000 ) ) ;
#76 = AXIS2_PLACEMENT_3D ( 'NONE', #20, #124, #70 ) ;
#77 = APPROVAL ( #112, 'UNSPECIFIED' ) ;
#78 = COORDINATED_UNIVERSAL_TIME_OFFSET ( 1, 0, .AHEAD. ) ;
#79 = EDGE_LOOP ( 'NONE', ( #8 ) ) ;
#80 = AXIS2_PLACEMENT_3D ( 'NONE', #65, #137, #46 ) ;
#81 = ORGANIZATION ( 'UNSPECIFIED', 'UNSPECIFIED', '' ) ;
#82 = CONICAL_SURFACE ( 'NONE', #182, 2.055000000000000160, 0.5235987755982992597 ) ;
#83 = APPLICATION_CONTEXT ( 'configuration controlled 3d designs of mechanical parts and assemblies' ) ;
#84 = DIRECTION ( 'NONE',  ( -3.491481338843133355E-15, 1.224646799147353207E-16, -1.000000000000000000 ) ) ;
#85 = DIRECTION ( 'NONE',  ( -3.491481338843133355E-15, 1.224646799147353207E-16, -1.000000000000000000 ) ) ;
#86 = LOCAL_TIME ( 13, 55, 54.00000000000000000, #230 ) ;
#87 = PLANE ( 'NONE',  #212 ) ;
#88 = FACE_OUTER_BOUND ( 'NONE', #22, .T. ) ;
#89 = CARTESIAN_POINT ( 'NONE',  ( 4.189777606611760026E-14, 2.054999999999998828, 12.00000000000000000 ) ) ;
#90 = AXIS2_PLACEMENT_3D ( 'NONE', #29, #123, #52 ) ;
#91 = DIRECTION ( 'NONE',  ( 0.0000000000000000000, 0.0000000000000000000, 1.000000000000000000 ) ) ;
#92 = CARTESIAN_POINT ( 'NONE',  ( 2.793185071074506684E-13, -9.797174393178826052E-15, 80.00000000000000000 ) ) ;
#93 = LOCAL_TIME ( 13, 55, 54.00000000000000000, #200 ) ;
#94 = PERSON_AND_ORGANIZATION ( #164, #81 ) ;
#95 = ADVANCED_FACE ( 'NONE', ( #216 ), #87, .F. ) ;
#96 = PERSON_AND_ORGANIZATION ( #164, #81 ) ;
#97 = EDGE_LOOP ( 'NONE', ( #151 ) ) ;
#98 = PRODUCT_DEFINITION_SHAPE ( 'NONE', 'NONE',  #196 ) ;
#99 = LOCAL_TIME ( 13, 55, 54.00000000000000000, #4 ) ;
#100 = EDGE_LOOP ( 'NONE', ( #211 ) ) ;
#101 = EDGE_LOOP ( 'NONE', ( #190 ) ) ;
#102 = LOCAL_TIME ( 13, 55, 54.00000000000000000, #78 ) ;
#103 = CARTESIAN_POINT ( 'NONE',  ( 4.189777606611760026E-14, 1.541003176685056804E-32, 12.00000000000000000 ) ) ;
#104 = ADVANCED_FACE ( 'NONE', ( #14, #154 ), #232, .T. ) ;
#105 = DIRECTION ( 'NONE',  ( 4.275831445896958607E-31, 1.000000000000000000, 1.224646799147353207E-16 ) ) ;
#106 = CARTESIAN_POINT ( 'NONE',  ( 2.793185071074506684E-13, 1.199807826129472128E-32, 80.00000000000000000 ) ) ;
#107 = APPROVAL_DATE_TIME ( #71, #121 ) ;
#108 = CARTESIAN_POINT ( 'NONE',  ( 4.189777606611760026E-14, 2.054999999999998828, 12.00000000000000000 ) ) ;
#109 = CONICAL_SURFACE ( 'NONE', #5, 1.600000000000000977, 0.7853981633974512766 ) ;
#110 = VERTEX_POINT ( 'NONE', #240 ) ;
#111 = APPLICATION_PROTOCOL_DEFINITION ( 'international standard', 'config_control_design', 1994, #83 ) ;
#112 = APPROVAL_STATUS ( 'not_yet_approved' ) ;
#113 = CLOSED_SHELL ( 'NONE', ( #157, #170, #217, #54 ) ) ;
#114 = EDGE_LOOP ( 'NONE', ( #228 ) ) ;
#115 = CALENDAR_DATE ( 2021, 2, 12 ) ;
#116 = EDGE_LOOP ( 'NONE', ( #167 ) ) ;
#117 = SECURITY_CLASSIFICATION_LEVEL ( 'unclassified' ) ;
#118 = AXIS2_PLACEMENT_3D ( 'NONE', #184, #33, #56 ) ;
#119 = ORIENTED_EDGE ( 'NONE', *, *, #208, .F. ) ;
#120 = APPROVAL_DATE_TIME ( #58, #160 ) ;
#121 = APPROVAL ( #18, 'UNSPECIFIED' ) ;
#122 = PLANE ( 'NONE',  #28 ) ;
#123 = DIRECTION ( 'NONE',  ( -3.491481338843133355E-15, 1.224646799147353207E-16, -1.000000000000000000 ) ) ;
#124 = DIRECTION ( 'NONE',  ( -3.491481338843133355E-15, 1.224646799147353207E-16, -1.000000000000000000 ) ) ;
#125 = CC_DESIGN_SECURITY_CLASSIFICATION ( #234, ( #21 ) ) ;
#126 = EDGE_CURVE ( 'NONE', #242, #242, #10, .T. ) ;
#127 = CC_DESIGN_PERSON_AND_ORGANIZATION_ASSIGNMENT ( #34, #30, ( #42 ) ) ;
#128 = DIRECTION ( 'NONE',  ( 0.0000000000000000000, 1.000000000000000000, 0.0000000000000000000 ) ) ;
#129 = UNCERTAINTY_MEASURE_WITH_UNIT (LENGTH_MEASURE( 1.000000000000000082E-05 ), #147, 'distance_accuracy_value', 'NONE');
#130 = ORIENTED_EDGE ( 'NONE', *, *, #126, .F. ) ;
#131 = AXIS2_PLACEMENT_3D ( 'NONE', #183, #74, #161 ) ;
#132 = PERSON_AND_ORGANIZATION_ROLE ( 'classification_officer' ) ;
#133 = EDGE_LOOP ( 'NONE', ( #7 ) ) ;
#134 = EDGE_LOOP ( 'NONE', ( #119 ) ) ;
#135 = DATE_AND_TIME ( #64, #86 ) ;
#136 = AXIS2_PLACEMENT_3D ( 'NONE', #27, #50, #233 ) ;
#137 = DIRECTION ( 'NONE',  ( -3.491481338843133355E-15, 1.224646799147353207E-16, -1.000000000000000000 ) ) ;
#138 = DIRECTION ( 'NONE',  ( 3.491481338843133355E-15, -1.224646799147353207E-16, 1.000000000000000000 ) ) ;
#139 = DIRECTION ( 'NONE',  ( -4.275831445896958607E-31, -1.000000000000000000, -1.224646799147353207E-16 ) ) ;
#140 = FACE_BOUND ( 'NONE', #101, .T. ) ;
#141 = CYLINDRICAL_SURFACE ( 'NONE', #209, 2.055000000000000160 ) ;
#142 = VERTEX_POINT ( 'NONE', #108 ) ;
#143 = CIRCLE ( 'NONE', #131, 2.055000000000000160 ) ;
#144 = DIRECTION ( 'NONE',  ( -3.491481338843133355E-15, 1.224646799147353207E-16, -1.000000000000000000 ) ) ;
#145 = CC_DESIGN_PERSON_AND_ORGANIZATION_ASSIGNMENT ( #191, #132, ( #234 ) ) ;
#146 = CARTESIAN_POINT ( 'NONE',  ( 4.223038433510816992E-14, 1.999999999999990452, 12.09526279441630336 ) ) ;
#147 =( LENGTH_UNIT ( ) NAMED_UNIT ( * ) SI_UNIT ( .MILLI., .METRE. ) );
#148 = COORDINATED_UNIVERSAL_TIME_OFFSET ( 1, 0, .AHEAD. ) ;
#149 = DATE_TIME_ROLE ( 'creation_date' ) ;
#150 = CC_DESIGN_DATE_AND_TIME_ASSIGNMENT ( #135, #213, ( #234 ) ) ;
#151 = ORIENTED_EDGE ( 'NONE', *, *, #126, .T. ) ;
#152 = EDGE_LOOP ( 'NONE', ( #210 ) ) ;
#153 = CARTESIAN_POINT ( 'NONE',  ( -7.076501042959461423E-31, 2.482102440305372754E-32, -2.026790452588868151E-16 ) ) ;
#154 = FACE_OUTER_BOUND ( 'NONE', #23, .T. ) ;
#155 = APPROVAL_PERSON_ORGANIZATION ( #94, #160, #3 ) ;
#156 = FACE_OUTER_BOUND ( 'NONE', #134, .T. ) ;
#157 = ADVANCED_FACE ( 'NONE', ( #88, #25 ), #141, .T. ) ;
#158 = DIRECTION ( 'NONE',  ( 3.491481338843133355E-15, -1.224646799147353207E-16, 1.000000000000000000 ) ) ;
#159 = APPROVAL_ROLE ( '' ) ;
#160 = APPROVAL ( #186, 'UNSPECIFIED' ) ;
#161 = DIRECTION ( 'NONE',  ( 0.0000000000000000000, 1.000000000000000000, 0.0000000000000000000 ) ) ;
#162 = CARTESIAN_POINT ( 'NONE',  ( 2.793185071074506684E-13, 1.599999999999991207, 80.00000000000000000 ) ) ;
#163 = APPLICATION_PROTOCOL_DEFINITION ( 'international standard', 'config_control_design', 1994, #47 ) ;
#164 = PERSON ( 'UNSPECIFIED', 'UNSPECIFIED', 'UNSPECIFIED', ('UNSPECIFIED'), ('UNSPECIFIED'), ('UNSPECIFIED') ) ;
#165 = FACE_OUTER_BOUND ( 'NONE', #100, .T. ) ;
#166 = PERSON_AND_ORGANIZATION_ROLE ( 'design_supplier' ) ;
#167 = ORIENTED_EDGE ( 'NONE', *, *, #16, .T. ) ;
#168 = CC_DESIGN_APPROVAL ( #77, ( #21 ) ) ;
#169 = PERSON_AND_ORGANIZATION_ROLE ( 'creator' ) ;
#170 = ADVANCED_FACE ( 'NONE', ( #156 ), #215, .T. ) ;
#171 = CALENDAR_DATE ( 2021, 2, 12 ) ;
#172 = DESIGN_CONTEXT ( 'detailed design', #83, 'design' ) ;
#173 = EDGE_LOOP ( 'NONE', ( #214 ) ) ;
#174 = AXIS2_PLACEMENT_3D ( 'NONE', #206, #91, #75 ) ;
#175 = DIRECTION ( 'NONE',  ( 4.275831445896958607E-31, 1.000000000000000000, 1.224646799147353207E-16 ) ) ;
#176 = DIRECTION ( 'NONE',  ( 0.0000000000000000000, 1.000000000000000000, 0.0000000000000000000 ) ) ;
#177 = DIRECTION ( 'NONE',  ( -3.491481338843133355E-15, 1.224646799147353207E-16, -1.000000000000000000 ) ) ;
#178 = CIRCLE ( 'NONE', #80, 1.999999999999991784 ) ;
#179 = EDGE_CURVE ( 'NONE', #110, #110, #241, .T. ) ;
#180 =( NAMED_UNIT ( * ) SI_UNIT ( $, .STERADIAN. ) SOLID_ANGLE_UNIT ( ) );
#181 = VERTEX_POINT ( 'NONE', #162 ) ;
#182 = AXIS2_PLACEMENT_3D ( 'NONE', #13, #219, #176 ) ;
#183 = CARTESIAN_POINT ( 'NONE',  ( 4.189777606611760026E-14, -1.469576158976823947E-15, 12.00000000000000000 ) ) ;
#184 = CARTESIAN_POINT ( 'NONE',  ( -3.538250521479730711E-31, 1.241051220152686377E-32, -1.013395226294434076E-16 ) ) ;
#185 = PERSON_AND_ORGANIZATION ( #164, #81 ) ;
#186 = APPROVAL_STATUS ( 'not_yet_approved' ) ;
#187 = ORIENTED_EDGE ( 'NONE', *, *, #188, .F. ) ;
#188 = EDGE_CURVE ( 'NONE', #221, #221, #178, .T. ) ;
#189 = DATE_AND_TIME ( #171, #99 ) ;
#190 = ORIENTED_EDGE ( 'NONE', *, *, #188, .T. ) ;
#191 = PERSON_AND_ORGANIZATION ( #164, #81 ) ;
#192 = PERSON_AND_ORGANIZATION_ROLE ( 'creator' ) ;
#193 = CONICAL_SURFACE ( 'NONE', #36, 1.654999999999998694, 0.7853981633974497223 ) ;
#194 = DIRECTION ( 'NONE',  ( 4.275831445896958607E-31, 1.000000000000000000, 1.224646799147353207E-16 ) ) ;
#195 = EDGE_CURVE ( 'NONE', #142, #142, #143, .T. ) ;
#196 = PRODUCT_DEFINITION ( 'UNKNOWN', '', #21, #172 ) ;
#197 = DIRECTION ( 'NONE',  ( -4.275831445896958607E-31, -1.000000000000000000, -1.224646799147353207E-16 ) ) ;
#198 = DIRECTION ( 'NONE',  ( 3.491481338843133355E-15, -1.224646799147353207E-16, 1.000000000000000000 ) ) ;
#199 = CIRCLE ( 'NONE', #136, 2.055000000000000160 ) ;
#200 = COORDINATED_UNIVERSAL_TIME_OFFSET ( 1, 0, .AHEAD. ) ;
#201 = DIRECTION ( 'NONE',  ( 0.0000000000000000000, 1.000000000000000000, 0.0000000000000000000 ) ) ;
#202 = APPROVAL_PERSON_ORGANIZATION ( #185, #121, #159 ) ;
#203 = PLANE ( 'NONE',  #118 ) ;
#204 = ADVANCED_FACE ( 'NONE', ( #165, #17 ), #109, .T. ) ;
#205 = FACE_OUTER_BOUND ( 'NONE', #97, .T. ) ;
#206 = CARTESIAN_POINT ( 'NONE',  ( 0.0000000000000000000, 0.0000000000000000000, 0.0000000000000000000 ) ) ;
#207 = EDGE_LOOP ( 'NONE', ( #130 ) ) ;
#208 = EDGE_CURVE ( 'NONE', #222, #222, #225, .T. ) ;
#209 = AXIS2_PLACEMENT_3D ( 'NONE', #220, #177, #235 ) ;
#210 = ORIENTED_EDGE ( 'NONE', *, *, #195, .F. ) ;
#211 = ORIENTED_EDGE ( 'NONE', *, *, #179, .F. ) ;
#212 = AXIS2_PLACEMENT_3D ( 'NONE', #106, #85, #175 ) ;
#213 = DATE_TIME_ROLE ( 'classification_date' ) ;
#214 = ORIENTED_EDGE ( 'NONE', *, *, #16, .F. ) ;
#215 = PLANE ( 'NONE',  #2 ) ;
#216 = FACE_OUTER_BOUND ( 'NONE', #173, .T. ) ;
#217 = ADVANCED_FACE ( 'NONE', ( #205 ), #203, .T. ) ;
#218 = AXIS2_PLACEMENT_3D ( 'NONE', #224, #1, #128 ) ;
#219 = DIRECTION ( 'NONE',  ( -3.491481338843133355E-15, 1.224646799147353207E-16, -1.000000000000000000 ) ) ;
#220 = CARTESIAN_POINT ( 'NONE',  ( 0.0000000000000000000, 0.0000000000000000000, 0.0000000000000000000 ) ) ;
#221 = VERTEX_POINT ( 'NONE', #146 ) ;
#222 = VERTEX_POINT ( 'NONE', #89 ) ;
#223 = CC_DESIGN_APPROVAL ( #160, ( #234 ) ) ;
#224 = CARTESIAN_POINT ( 'NONE',  ( 4.189777606611760026E-14, -1.469576158976823947E-15, 12.00000000000000000 ) ) ;
#225 = CIRCLE ( 'NONE', #218, 2.055000000000000160 ) ;
#226 = CALENDAR_DATE ( 2021, 2, 12 ) ;
#227 = DATE_AND_TIME ( #115, #102 ) ;
#228 = ORIENTED_EDGE ( 'NONE', *, *, #195, .T. ) ;
#229 = CC_DESIGN_PERSON_AND_ORGANIZATION_ASSIGNMENT ( #43, #192, ( #21 ) ) ;
#230 = COORDINATED_UNIVERSAL_TIME_OFFSET ( 1, 0, .AHEAD. ) ;
#231 = MANIFOLD_SOLID_BREP ( 'Corps-Déplacer/Copier1[1]', #49 ) ;
#232 = CYLINDRICAL_SURFACE ( 'NONE', #37, 1.999999999999996669 ) ;
#233 = DIRECTION ( 'NONE',  ( 4.685960935248748908E-31, 1.000000000000000000, 1.318980745116185407E-16 ) ) ;
#234 = SECURITY_CLASSIFICATION ( '', '', #117 ) ;
#235 = DIRECTION ( 'NONE',  ( 4.275831445896958607E-31, 1.000000000000000000, 1.224646799147353207E-16 ) ) ;
#236 = CARTESIAN_POINT ( 'NONE',  ( 0.0000000000000000000, 0.0000000000000000000, 0.0000000000000000000 ) ) ;
#237 = CARTESIAN_POINT ( 'NONE',  ( -7.076501042959461423E-31, 2.482102440305372754E-32, -2.026790452588868151E-16 ) ) ;
#238 = CALENDAR_DATE ( 2021, 2, 12 ) ;
#239 = MANIFOLD_SOLID_BREP ( 'Corps-Déplacer/Copier1[2]', #113 ) ;
#240 = CARTESIAN_POINT ( 'NONE',  ( 2.779219145719134403E-13, 1.999999999999991340, 79.60000000000000853 ) ) ;
#241 = CIRCLE ( 'NONE', #90, 2.000000000000000888 ) ;
#242 = VERTEX_POINT ( 'NONE', #73 ) ;
#243 = CC_DESIGN_DATE_AND_TIME_ASSIGNMENT ( #189, #149, ( #196 ) ) ;
ENDSEC;
END-ISO-10303-21;
